» » »

Junk Satellite Tabs (ver.1)

Artists:  A B C D E F G H I J K L M N O P Q R S T U V W X Y Z # 

Junk Satellite Tabs (ver.1)

Man Or Astro-man
Rating:
0/5 (0 votes)

Hard to play? Try these video lessons and learn fast.
                Junk satellite

OK, here's my tab for Junk satellite.  Again, I figured this song out in
E FLAT tuning, so either convert it or tune down.

Riff 1:
E:------------------------------------------------------------|
B:------------------------------------------------------------|
G:--6-6-7~~---6-6-7~~---6-6-7~~--(etc.)-----------------------|
D:------------------------------------------------------------|
A:------------------------------------------------------------|
E:------------------------------------------------------------|
2A is pretty simple, although I'm not sure if I'm forming the chords just
how they do.  Either way the notes are right, play them however you want.

Riff 2A:
E:------------------------------------------------------------|
B:------------------------------------------------------------|
G:------------------------------------------------------------|
D:------------------------------------------------------------|
A:---XX5-XX3--XX3--XX2----------------------------------------|
E:---XX5-XX3--XX4--XX3---(etc.)-------------------------------|
2B is played over top of the first two chords of 2A, it creates that cool
erie feeling.

Riff 2B:
E:-------------------------------------------------------------|
B:-------------------------------------------------------------|
G:-------------------------------------------------------------|
D:------88-77-6--(etc.)----------------------------------------|
A:-------------------------------------------------------------|
E:-------------------------------------------------------------|

Riff 3:

E:------------------------------------------------------------|
B:------------------------------------------------------------|
G:------------------------------------------------------------|
D:--555555555555555555-88888888-33333333----------------------|
A:--555555555555555555-88888888-33333333----------------------|
E:--333333333333333333-66666666-11111111----------------------|
4 is played over top of the vocals "Coming down in a broken sattelite.."

Riff 4:

E:------------------------------------------------------------|
B:------------------------------------------------------------|
G:------------3-3--6------------------------------------------|
D:--5-5--3-3--3-3--6------------------------------------------|
A:--5-5--3-3--1-1--4~~----------------------------------------|
E:--3-3--1-1--------------------------------------------------|
I am totally unsure about 5, it does something like this, they might even
be using some weird effect along with it.  This is the riff after all the
vocals are done and 3 is played along with it.

Riff 5:

E:-----------------------------------------------------------------|
B:-----------------------------------------------------------------|
G:-12/-12/-12/-12/-12/-12/-12/-12/-15/-15/-15/-15/-10/-10/-10/-10--|
D:-----------------------------------------------------------------|
A:-----------------------------------------------------------------|
E:-----------------------------------------------------------------|

Disclaimer: This tab is not official, and is open to interpretation.  It
nothing more.  Comments and suggestions welcome.  Hate mail telling me
"You suck" and "all your tabs are wrong" are still and always will be
welcome as well.
            
Hard to play? Try these video lessons and learn fast. | Correct




comments powered by Disqus
↑ Back to top | Tablatures and chords are parodies/interpretations of the original songs. You may use it for private study, scholarship, research or language learning purposes only