>
 >
Guargantuas Last Stand

Guargantuas Last Stand Guitar Tabs

Man Or Astro-man - Guargantuas Last Stand chords, tabs, tablatures, lyrics

Guitar lessons | Add/correct | Request | Top 50 tabs Artists:  A B C D E F G H I J K L M N O P Q R S T U V W X Y Z 0-9

Guargantuas Last Stand Guitar Tabs – Man Or Astro-man

CD, Sheet music, Poster

Do you like Guargantuas Last Stand? Share with your friends now
Tabs

GARGANTUA'S LAST STAND - by Man...or Astro-Man?
=========== ==== =====   available on Destroy All Astromen!

*1

Palm muting throughout

|--------------------------------------------------------------------|
|--------------------------------------------------------------------|
|--------------------------------------------------------------------|
|--------------------------------------------------------------------|
|-----1-2-1------------3-2------1-2-1--------------------------------|
|-0-0-------2--3-2-3-2------0-0-------2--3-2-3-2-3-2-----------------|

*2

|--------------------------------------------------------------------|
|--------------------------------------------------------------------|
|--------------------------------------------------------------------|
|-2-1-2-1-2-1-2-1-2--------------------------------------------------|
|--------------------------------------------------------------------|
|-------------------0------------------------------------------------|


|--------------------------------------------------------------------|
|--------------------------------------------------------------------|
|-2--2-2----5--5-5-4-2--4----4--4--4--2--2-2----5--5-5-4-2--4--------|
|--------2--------------4----4--4--4---------2--------------4----2-1-|
|-----------------------2----2--2--2------------------------2--------|
|--------------------------------------------------------------------|

|--------------------------------------------------------------------|
|--------------------------------------------------------------------|
|--------------------------------------------------------------------|
|-2-1-2-1-2-1-2-1-2--------------------------------------------------|
|--------------------------------------------------------------------|
|-------------------0------------------------------------------------|

*3

|-0--------5--------7---------8-----7------8-----7-------0----------5-|
|-0--------5--------7---------8-----7------8-----7-------0----------5-|
|-1--------6--------8---------9-----8------9-----8-------1----------6-|
|-2----X-X-7----X-X-9----X-X-10-X-X-9-X-X-10-X-X-9-------2----------7-|
|-2----X-X-7----X-X-9----X-X-10-X-X-9-X-X-10-X-X-9-------2----------7-|
|-0----X-X-5----X-X-7----X-X--8-X-X-7-X-X--8-X-X-7-0-0-0-0----5-5-5-5-|

|-------7---------8-----7------8-----7-------------------------------|
|-------7---------8-----7------8-----7-------------------------------|
|-------8---------9-----8------9-----8-------------------------------|
|-------9----X-X-10-X-X-9-X-X-10-X-X-9-------------------------------|
|-------9----X-X-10-X-X-9-X-X-10-X-X-9-------------------------------|
|-7-7-7-7----X-X--8-X-X-7-X-X--8-X-X-7-------------------------------|

*4

|--------------------------------------------------------------------|
|--------------------------------------------------------------------|
|--------------------------------------------------------------------|
|-2--2-2----------5--5-5-4-2-----------------------------------------|
|--------0--0-0-0-------------0-1h2-2-1h2-2-1h2-1h2-2-1h2-2-1h2------|
|--------------------------------------------------------------------|

|---------------------------------------------------------------------|
|---------------------------------------------------------------------|
|---------------------------------------------------------------------|
|-2--2-2----------5--5-5-4-2------------------------------------------|
|--------0--0-0-0-------------3-3-3-3-3-3-3-3-3-3-3-3-2-1-0-----------|
|-----------------------------------------------------------3-2-1-0-0-|

-first time only

|----12--------------------------------------------------------------|
|----12--------------------------------------------------------------|
|----12--------------------------------------------------------------|
|--------------------------------------------------------------------|
|--------------------------------------------------------------------|
|---------14\--------------------------------------------------------|

*5

(slight palm muting)

|-12-12-11-11-10-10-9-9-8-8-7-6\--12-12-11-11-10-10-9-9-8-8-7-6\-----|
|-12-12-11-11-10-10-9-9-8-8-7-6\--12-12-11-11-10-10-9-9-8-8-7-6\-----|
|--------------------------------------------------------------------|
|--------------------------------------------------------------------|
|--------------------------------------------------------------------|
|--------------------------------------------------------------------|

|---------------------------------------------------12-12-11-11-10-10-|
|-/10-10-10-10-11-11-11-11-13-13-13-13-11-10-11-10--12-12-11-11-10-10-|
|---------------------------------------------------------------------|
|---------------------------------------------------------------------|
|---------------------------------------------------------------------|
|---------------------------------------------------------------------|

|-9-9-8-8-7-6\--12-12-11-11-10-10-9-9-8-8-7-7-6-6-5-5-4-4-3-3-2-2-1-1-|
|-9-9-8-8-7-6\--12-12-11-11-10-10-9-9-8-8-7-7-6-6-5-5-4-4-3-3-2-2-1-1-|
|---------------------------------------------------------------------|
|---------------------------------------------------------------------|
|---------------------------------------------------------------------|
|---------------------------------------------------------------------|

|-------0------------------------------------------------------------|
|-------0------------------------------------------------------------|
|-------1------------------------------------------------------------|
|-------2------------------------------------------------------------|
|-------2------------------------------------------------------------|
|-0-0-0-0------------------------------------------------------------|





Comments


Popular Man Or Astro-man tabs & chords
Alien Visitors 1 Tabs
Alpha Surfari Tabs
Classified Tabs
Espanto Del Futuro Tabs
Jokers Wild Tabs
King Of The Monsters Tabs
Manta Ray Tabs
Name Of Numbers Tabs
Sferic Waves Tabs
Mermaid Love Ukulele


Song lyrics



↑ Back to top | Tablatures and chords are parodies/interpretations of the original songs. You may use it for private study, scholarship, research or language learning purposes only
© 2014 AZChords.com Contact us | Privacy policy | DMCA | Add/correct tabs | Request tabs | Top 50 tabs