» » »

Complex Tabs (ver.1)

Artists:  A B C D E F G H I J K L M N O P Q R S T U V W X Y Z # 

Complex Tabs (ver.1)

Man Or Astro-man
Rating:
0/5 (0 votes)

Hard to play? Try these video lessons and learn fast.
                "(3)
#------------------------------------------------------------------------------##
#


COMPLEX 34 - by Man...or Astro-Man? from the album
======= ==   Project Infinity

*1

G1 reverb, distortion

|-0-0-------------------------1-1-----1-1---0--0-0-------------|
|-1-1-------------------------1-1-X-X-1-1---0--0-0-------------|
|-2-2-------------------------2-2-X-X-2-2---1--1-1-------------|
|-2-2-------3--2--2-0h2p0-----3-3-X-X-3-3-X-2--2-2-------------|
|-0-0-0-2-3---------------3-0-3-3-X-X-3-3-X-2--2-2-------------|
|--------------------------------------------------0-0-2-0-3-0-|

Repeat *1 once with slight variations

*2

|-------------------------------------------------------------|
|-------------------------------------------------------------|
|-------------------------------------------------------------|
|-2-2-5-3-2-------------0-2-0-------------------2-2-5-3-2-----|
|-0-0-------0-0-3-5-3---------3-2---------------0-0-------0-0-|
|---------------------5-----------0-0-0-0-0-0-0---------------|

|-------------------------------------------------------------|
|-------------------------------------------------------------|
|-------------------------------------------------------------|
|---------0-2-0-----------------------------------------------|
|-3-5-3---------3-2--2-2-2-2-2-2-2----------------------------|
|-------5-----------------------------------------------------|

*3

|---------X-5--5--5-5------------------------------X-5--5--5-5-|
|---------X-5--5--5-5-----------5-6--6-5-3---------X-5--5--5-5-|
|-4-4-5-5-X-5--5--5-5-----------4-5--5-4-2-4-4-5-5-X-5--5--5-5-|
|-2-2-3-3-X------------4-4-5-5-------------2-2-3-3-X-----------|
|----------------------2-2-3-3---------------------------------|
|--------------------------------------------------------------|

|-------------------------------------------------------------|
|----------6-5--5-3-1-----------------------------------------|
|----------5-4--4-2-0-----------------------------------------|
|-4-4-5-5-----------------------------------------------------|
|-2-2-3-3-----------------------------------------------------|
|-------------------------------------------------------------|

*4

During the vocal part, play |577655|, |355433|, |133211|, and |022100|
in that order.  Listen to the record for the rhythm.

*5

|---------------------------------------------------------------------|
|-----10------10------10------10------10------10----------------------|
|-----9-------9-------9-------9-------9-------9-----10-10-10-10-10-10-|
|----(9)-----(9)-----(9)-----(9)-----(9)-----(9)----10-10-10-10-10-10-|
|-7-7---7-8-8---8-----------------7-7---7-8-8-------8--8--8--8--8--8--|
|-----------------7-7---7-8-8---8-------------------------------------|

End with *1
"            
Hard to play? Try these video lessons and learn fast. | Correct




comments powered by Disqus
↑ Back to top | Tablatures and chords are parodies/interpretations of the original songs. You may use it for private study, scholarship, research or language learning purposes only