» » »

Bermuda Triangle Shorts Tabs (ver.1)

Artists:  A B C D E F G H I J K L M N O P Q R S T U V W X Y Z # 

Bermuda Triangle Shorts Tabs (ver.1)

Man Or Astro-man
Rating:
0/5 (0 votes)

Hard to play? Try these video lessons and learn fast.
                Part 1
------------------------------------------------------------------|
------------------------------------------------------------------|
------------------------------------------------------------------|
---------2--------------------------------------------------------|
3--3--3-----3--3--3-----------3--2--3--3-----------3--2--3--3-----|
---------------------3--3--3--------------1--1--1-----------------|


                     Part 2
------------------|--0--0--3--1--1--|-----------------------------|
------------------|--1--1--3--1--1--|-----------------------------|
------------------|--2--2--4--2--2--|-----------------------------|
------------------|--2--2--5--3--3--|-----------------------------|
---------5--3--5--|--0--0--5--3--3--|-----------------------------|
3--3--3-----------|--------3--1--1--|-----------------------------|


Part 3
------------------------------------------------------------------|
------------------------------------------------------------------|
------------------------------------------------------------------|
------------------------------------------------------------------|
0--0--3--5--5--0-----------5/7--5--3--0--0--3--5--5--0------------|
------------------3--3--3-------------------------------3--3------|


                     Part 4
------------------|--------3--3--1--1--3--3--|--------------------|
------------------|--5--5--3--3--1--1--3--3--|--------------------|
------------------|--5--5--4--4--2--2--4--4--|--------------------|
------------------|--5--5--5--5--3--3--5--5--|--------------------|
------------------|--3--3--5--5--3--3--5--5--|--------------------|
3--5--5--3--5--3--|--------3--3--1--1--3--3--|--------------------|


Order:

Prt 1 - 3x
Prt 2 - 4x
Prt 1 - 2x
Prt 3 - 2x
Prt 4 - 2x
Solo
Prt 1 - 2x

Listen to album for correct rhythms.
            
Hard to play? Try these video lessons and learn fast. | Correct




comments powered by Disqus
↑ Back to top | Tablatures and chords are parodies/interpretations of the original songs. You may use it for private study, scholarship, research or language learning purposes only