» » »

Man Or Astro-man, A Mouthful Of Exhaust Tabs (ver.1)

Artists:  A B C D E F G H I J K L M N O P Q R S T U V W X Y Z # 

A Mouthful Of Exhaust Tabs (ver.1)

Man Or Astro-man Tabs
 Rating:
4.2/5 (5 votes)
A Mouthful Of Exhaust lessons Tabs too difficult? Try these video lessons and learn fast
                A MOUTHFUL OF EXHAUST


|------------------------------------------------------------------|
|------------------------------------------------------------------|
|------------------------------------------------------------------|
|-5-2--5-4-0--4-2----5-7\--5-2--5-4-0--4-2----4/5-5-5--------------|
|-----------------3--5-7\------------------3--4/5-5-5--------------|
|--------------------3-5\---------------------2/3-3-3--------------|

|------------------------------------------------------------------|
|------------------------------------------------------------------|
|-4p0----0------------------------------4p0----0-------------------|
|-----2----4p0----0-------------------------2----4p0---------------|
|--------------2----0h2h3-3--3-0h2h3-3---------------2-...---------|
|------------------------------------------------------------------|


Hit the E string here


|------------------------------------------------------------------|
|-------------------------------------5----------------------------|
|---------4-------------4-------5-4-2---5-4---------4--------------|
|---5-4-2---5-4---5-4-2---5-4-----------------5-4-2---5-4----------|
|-----------------------------0------------------------------------|
|-0-------------0---------------------------0----------------------|

|------------------------------------------------------------------|
|----8---8/12--12-12-----8---8/13--13-13---------------------------|
|------9-------------------9---------------------------------------|
|-/9-----------------/10------------------------/9--9-9\-----------|
|-------------------------------------------9----------------------|
|----------------------------------------/7---7--------------------|

|-----------------|------------------------------------------------|
|-----------------|------------------------------------------------|
|-----------------|------------------------2---2--2-1-0------------|
|-----------------|-2---2--2-1-0-----------2---2--------2-1-0------|
|-----------------|-2---2--------2-1-0-----0---0--------------3-0--|
|-2-3-5-3-2-3-2-0-|-0---0--------------3-0-------------------------|


|------------------------------------------------------------------|
|------------------------------------------------------------------|
|-------------------------4-4-4-4-4-4-4----------------------------|
|-2---2--2-1-0------------4-4-4-4-4-4-4-----------------2----------|
|-2---2--------2-1-0------2-2-2-2-2-2-2-2-0-------------2----------|
|-0---0--------------3-0--------------------3-2-0-2-3-2-0----------|

(coughing)

|------------------------------------------------------------------|
|-------------------------------------5----------------------------|
|---------4-------------4-------5-4-2---5-4---------4--------------|
|---5-4-2---5-4---5-4-2---5-4-----------------5-4-2---5-4----------|
|-----------------------------0------------------------------------|
|-0-------------0---------------------------0----------------------|

|------------------------------------------------------------------|
|----8---8/12--12-12-----8---8/13--13-13---------------------------|
|------9-------------------9---------------------------------------|
|-/9-----------------/10------------------------/9--9-9\-----------|
|-------------------------------------------9----------------------|
|----------------------------------------/7---7--------------------|

|-----------------|
|-----------------|
|-----------------|
|-----------------|
|-----------------|
|-2-3-5-3-2-3-2-0-|

(Sound clip and solo thing)

|------------------------------------------------------------------|
|------------------------------------------------------------------|
|------------------------------------------------------------------|
|-5-2--5-4-0--4-2----5-7\--5-2--5-4-0--4-2----4/5-5-5--------------|
|-----------------3--5-7\------------------3--4/5-5-5--------------|
|--------------------3-5\---------------------2/3-3-3--------------|

|------------------------------------------------------------------|
|------------------------------------------------------------------|
|-4p0----0------------------------------4p0----0-------------------|
|-----2----4p0----0-------------------------2----4p0---------------|
|--------------2----0h2h3-3--3-0h2h3-3---------------2-...---------|
|------------------------------------------------------------------|

|------------------------------------------------------------------|
|-------------------------------------5----------------------------|
|---------4-------------4-------5-4-2---5-4---------4--------------|
|---5-4-2---5-4---5-4-2---5-4-----------------5-4-2---5-4----------|
|-----------------------------0------------------------------------|
|-0-------------0---------------------------0----------------------|

|------------------------------------------------------------------|
|------------------------------------------------------------------|
|------------------------------------------------------------------|
|-9-9-7-7-5-5-3-3-2-2-2-2------------------------------------------|
|-9-9-7-7-5-5-3-3-2-2-2-2------------------------------------------|
|-7-7-5-5-3-3-2-2-0-0-0-0------------------------------------------|
            
Submit corrections

comments powered by Disqus
↑ Back to top | Man Or Astro-man Tabs for A Mouthful Of Exhaust. Lyrics for acoustic guitar and electric guitar. Tablatures and chords are parodies/interpretations of the original songs. You may use it for private study, scholarship, research or language learning purposes only