» » »

Man Or Astro-man, 9 Volt Tabs (ver.2)

Artists:  A B C D E F G H I J K L M N O P Q R S T U V W X Y Z # 

9 Volt Tabs (ver.2)

Man Or Astro-man Tabs
Rating:
0/5 (0 votes)
9 Volt lessons Tabs too difficult? Try these video lessons and learn fast
                
9 VOLT - by Man...or Astro-man? from the album Experiment Zero
= ====
*1
A# C# Eb


|----------------------------------------------------------------------|
|----------------------------------------------------------------------|
|----------------------------------------------------------------------|
|--3----6-----8--------------------------------------------------------|
|--1----4-----6--------------------------------------------------------|
|----------------------------------------------------------------------|

*2

|-------------------------------------------------------------------|
|-------------------------------------------------------------------|
|-------------------------------------------------------------------|
|-------------------------------------------------------------------|
|-------------------------13-13-13-12-12-12-11-11---------8-8-------|
|-11-11-11-11-14-11-11-11-------------------------9-9-9-9-----9-9---|

|--------------------------------------------------------------------|
|--------------------------------------------------------------------|
|--------------------------------------------------------------------|
|--------------------------------------------------------------------|
|-/11-11-11-11-9-9-11-9-------------------------13-13-13-12-12-12-11-|
|-----------------------11-11-11-11-14-11-11-11----------------------|

|-------------------------------------------------------------------|
|-------------------------------------------------------------------|
|-------------------------------------------------------------------|
|-------------------------------------------------------------------|
|-11---------8-8----------------------------------------------------|
|----9-9-9-9-----9-9-11hb(11-11-11-11-11)r--------------------------|

*3
|------------------------------------------------------------------|
|------------------------------------------------------------------|
|-8----8---------------------------------8-------------------------|
|-8----8--Xa few-------------------------8--X a few----------------|
|-6----6----------4-4-4-4-4--3-3-3-3-3---6-------------------------|
|-----------------2-2-2-2-2--1-1-1-1-1-----------------------------|

part 4
|------------------------------------------------------------------------|
|------------------------------------------------------------------------|
|------------------------------------------------------------------------|
|--16--16------------8------------4----------8---------16----------8-----|
|--14--14----Xafew---6--X a few---2--X a few-6-Xafew---14-x a few--6X----|
|------------------------------------------------------------------------|

|------------------------------------------------------------------------------------|
|------------------------------------------------------------------------------------|
|------------------------------------------------------------------------------------|
|16---------13----11-------10-10--11--10---------------------------------------------|
|14-X-a few-11----9--Xafew-8---8---9--9----------------------------------------------|
|------------------------------------------------------------------------------------|


I know you're in that ???
             F
Magnetically ???
          Eb
Set on erase.
Eb                 F#

Cause I have X-Ray vision
               F
And like a television
              Eb
Repeat 1
Repeat *3 to these lyrics:

It's not rocket science
System complience
with a shifting eye
Cause I have X-Ray vision
and like a television
*4
B                                    Eb
Burnin' down again our songs are sung
B                                             Eb
Seen and seen again all the things you've done
B                         Ab
Ridden out in lithe oxygen
F#              F                    Eb
Don't touch me again with the 9 Volt ???
Repeat *1
Repeat *4 with these lyrics:
??? our songs are sung
Seen and seen again all the things you've done
Let's not go out like the atom bomb
Don't touch me again with the 9 Volt ???

Repeat *2
            

comments powered by Disqus
↑ Back to top | Man Or Astro-man Tabs for 9 Volt. Lyrics for acoustic guitar and electric guitar. Tablatures and chords are parodies/interpretations of the original songs. You may use it for private study, scholarship, research or language learning purposes only