>
 >
Its Not War Just The End Of Love 1

Its Not War Just The End Of Love 1 Guitar Tabs

Manic Street Preachers - Its Not War Just The End Of Love 1 chords, tabs, tablatures, lyrics

Guitar lessons | Add/correct | Request | Top 50 tabs Artists:  A B C D E F G H I J K L M N O P Q R S T U V W X Y Z 0-9

Its Not War Just The End Of Love 1 Guitar Tabs – Manic Street Preachers

CD, Sheet music, Poster

Do you like Its Not War Just The End Of Love 1? Share with your friends now
Bass TabsTabsTabs v2
-------------------------------------------------------------------------------
                        It's not war (just the end of love) - Manic Street Preachers
-------------------------------------------------------------------------------
My first tab so apologies if it's not clear enough, this is how I normally tab. 
Great song, not seen any
tabs yet so I thought i'd have a punt. The solo was tricky to tab so it may not be 
perfect but it sounds
ok to me.

Tuning: Capo 3 (notes not relative to capo, 8 is 8th fret, not 11th)Chords are
relative to capo, the tabbed notes are not relative to the capo
  Into riff :
e|-------------------------------------------     5-----------------------|
B|-------------------------------------------   --6-----------------------|
G|-------5-------5--3-----------3--------3-   - --5-------6--------5  -3--|
D|----7-------7-----5--------5--------5------------ ---7--------7---   5--|
A|-8-------6------  6-----6--------5------------ ----8--------6------ -6--|
E|------------------------------------------------------------------------|

e|-------------------------------------------------------------------------------------|
B|-------------------------------------------------------------------------------------|
G|-------3-------3-------3--------3----------------------------------------------------|
D|----5-------5-------5------  5  -----------------------------------------------------|
A|--6------5-------3-------------------------------------------------------------------|
E|---------------------------6--------5------------------------------------------------|


Into chords: (relative to Capo) D G A (fill)  G, Bm G A (fill)  G

  Fill over A chord :
e|-------------------------------|
B|-------------------------------|
G|-------------------------------|
D|--12 14 12 14--   14 12 14 12--|
A|--3--3---3--3-  ---3--3--3--3--|
E|-------------------------------|

 Verse :
e|--------------------------------------------------------------------------------------|
B|--------------------------------------------------------------------------------------|
G|-----3-----3-------3-----3--------3-----3-------3-------------------------------------|
D|-------7-----7-------7-----7--------7-----7-------7---------3-3-----------------------|
A|---8-----8-----8-------8-----3--------3-----3----------3-5----------------------------|
E|------------------6--------------8--------------8-----8-------------------------------|

 Chorus 1 - D  G A (fill) G, Bm G A (fill) G x 2 (fill) G
 Verse 2 - as verse 1
 Chorus 2 - D  G A (fill) G, Bm G A (fill) G x 3 [(fill) G ] x 2
 Intro riff
  Solo :
e|-------------------------------------------------------|
B|-------------------------------------------------------|
G|------------------------10 12/14 14 12p10h12-----------|
D|-----------------10h12--------------------------10 10--|
A|----------10h12----------------------------------------|
E|---10h13-----------------------------------------------|

e|--------------------------------------|
B|--10 10p8-----------------------------|
G|-----------10    12 12p10/9-----------|
D|----------------------------   10/12--|
A|--------------------------------------|
E|--------------------------------------|

e|---------------------------------------------------------------------|
B|-----------------------------------------------------------------11--|
G|---9 7h9p7 7 5h7p5----------------------9 7h9p7 10b12br   -------10--|
D|-----------------------/10-------/10 10------------------------------|
A|---------------------------------------------------------------------|
E|---------------------------------------------------------------------|
Chorus 3 :  D G A (fill) G, Bm G A (fill) G x 3 [(fill) G] x 3
Outro same as Intro riff, final chord is F


************************************

| /   slide up
| \   slide down
| h   hammer-on
| p   pull-off
| ~   vibrato
| +   harmonic
| x   Mute note
| b   Bend
| pb  Pre-bend
| br  Bend release
| pbr Pre-bend release
| brb Bend release bend

************************************





Comments


Popular Manic Street Preachers tabs & chords
Everything Must Go Bass Tabs
Revol Bass Tabs
Emily Chords
Let Robeson Sing Chords
Leviathan 1 Chords
You Stole The Sun From My Heart Chords
*** Dog Tabs
New Art Riot Tabs
Of Walking Abortion 1 Tabs
Removables Ukulele


Song lyrics



↑ Back to top | Tablatures and chords are parodies/interpretations of the original songs. You may use it for private study, scholarship, research or language learning purposes only
© 2014 AZChords.com Contact us | Privacy policy | DMCA | Add/correct tabs | Request tabs | Top 50 tabs