>
 >
Die In The Summertime  1

Die In The Summertime  1 Guitar Tabs

Manic Street Preachers - Die In The Summertime  1 chords, tabs, tablatures, lyrics

Guitar lessons | Add/correct | Request | Top 50 tabs Artists:  A B C D E F G H I J K L M N O P Q R S T U V W X Y Z 0-9

Die In The Summertime  1 Guitar Tabs – Manic Street Preachers

CD, Sheet music, Poster

Do you like Die In The Summertime  1? Share with your friends now
Bass TabsTabsTabs v2
Die in The Summertime - Guitar Tab
(Bradfield/Edwards/Moore)

Standard Tuning (E A D G B e)

Chords:

 C#5 D5  B5  F5   Asus2  C#  G#5 F#5  C5 G#dim5
-------------------0---------------------------
-------------------0-----6---------------------
-6---7---4---10----2-----6------------5--------
-6---7---4---10----2-----6----6---4---5---6----
-4---5---2---8-----0-----4----6---4---3---5----
------------------------------4---2-------4----


Intro Riff: (clean with chorus effect)

-----------------------------------------------||
-----------------------------------------------||
-----------------------------------------------|| x3
---0---0-----0---0---------3---3-----3---3-----||
-4---4---4-----4---4-4---4---4---4-----4---4-4-||
-----------------------------------------------||

(add distortion)
-----------------------------------------------|
-----------------------------------------------|
-----------------------------------------------|
---0---0-----0---0---------3---3-----3---3-----|
-4---4---4-----4---4-4---4---4---4-----4---4-4-|
-----------------------------------------------|

-----------------------------------------------|
-----------------------------------------------|
-----------------------------------------------|
---0---0-----0---0-0-0-----3---3-----3---3-3-3-|
-4---4---4-----4---------4---4---4-----4-------|
-----------------------------------------------|

Verse Riff:

------------------------------------------------
------------------------------------------------
------------------------------------------------
---0----0----0---0-0-0-----3---3-----3---4po3---
-4----4---4----4---------4---4---4-----4------4-
------------------------------------------------

-------------------------------------------------
-------------------------------------------------
-------------------------------------------------
---0----0----0---0-0-0-----3---3-----3-----------
-4----4---4----4---------4---4---4-----4-------2-
------------------------------------------2ho4---


RIFF A:

C#5 D5              B5 C#5     F5        C#5
----------------------------------------------------
----------------------------------------------------
-6--7--7---7--7-7---4--6-6--6--10-10--10-6-6--6--x-x
-6--7--7---7--7-7---4--6-6--6--10-10--10-6-6--6--x-x
-4--5--5---5--5-5---2--4-4--4--8--8---8--4-4--4--x-x
----------------------------------------------------

C#5 D5               B5 C#5
---------------------------
---------------------------
-6--7--7--7----7--7--4--6--
-6--7--7--7----7--7--4--6--
-4--5--5--5----5--5--2--4--
---------------------------

FILL A:

 C#5  l.r
-------------------------
-------------------------
-6-----------------------
-6-----------------------
-4-----------------------
-------------------------

FILL B:

 C#5
-------------------------
-------------------------
-6-----------------------
-6------6----------------
-4------4---0------------
-------------------------

Verse: Verse Riff x2

       RIFF A      FILL A

       Verse Riff x2

       RIFF A      FILL B


Chorus:

 Asus2            C#
-------0---------------------------------------
-0-------0--------6------------6-6-6-----------
-2----------------6------------6-6-6--4--------
-2----------------6---------2--6-6-6--4--------
-0----------------4---------0--4-4-4--2--------
-----------------------------------------------

 Asus2            C#
------0----------------------------------------
--------0---------6----------------------------
-2----------------6---------6--6--4--6---4--2--
-2----------------6---------6--6--4--6---4--2--
-0----------------4---------4--4--2--4---2--0--
-----------------------------------------------

 Asus2            C#
------0----------------------------------------
-0------0---------6---------6-6-6-----6-6-6----
-2----------------6---------6-6-6--2--6-6-6--4-
-2----------------6---------6-6-6--2--6-6-6--4-
-0----------------4---------4-4-4--0--4-4-4--2-
-----------------------------------------------

 Asus2            C#
-----0-------------------
-------0----------6------
-2----------------6------
-2----------------6------
-0----------------4------
-------------------------

FILL C: (play before going back into 2nd verse)
-------------------------
-------------------------
-------------------------
-------------------------
-4-4---------------------
-------------------------

FILL D: (Play before solo)

 C#5               C#dim5
-------------------------
-------------------------
-6-x-6---x----x-6--------
-6-x-6---x----x-6--6-6---
-4-x-4---x----x-4--5-5---
-------------------4-4---

SOLO:

 G#5                   C#5
--------------------------
-9-10-9-10-9---10-9-10-9/-
--------------------------
--------------------------
--------------------------
--------------------------
                           F#5
------------------------------
/14-15-14-15-14---15-14-15-14\
------------------------------
------------------------------
------------------------------
------------------------------

                     C5
------------------------
/7-8-7-8-7---8-7-8------
---------------------x/-
------------------------
------------------------
------------------------

                                                 G#5
---------15-----------------------------------------
------------18po15-17po15-16po15----15--------------
17bu(19)-------------------------17----17po16po15---
-------------------------------------------------17-
----------------------------------------------------
----------------------------------------------------

----------------------------------------------
-------------13-14-16po14po13-14po13----------
13-14po13-14-------------------------14-13-14-
----------------------------------------------
----------------------------------------------
----------------------------------------------
 C#5                           F#5
-------------------------------------
-14bu(15)ld(14)-14---14-14-14--------
-------------------------------12po9-
-------------------------------------
-------------------------------------
-------------------------------------

                         C5
   +1    +1 TH     +1    +1
----------------------------
----------------------------
-11WB(11)WB<11>{16}WB(11)WB-
----------------------------
----------------------------
----------------------------

(nb: WB=Whammy Bar
     TH=Tapped Harmonic

     i.e. (11){16}=Left hand on 11th fret
                   Right hand taps 16th fret)

   
                          C#5
----------0---------------0----
-/11~~~~~--------11~~~~~-------
-------------------------------
-------------------------------
-------------------------------
-------------------------------


 don't worry too much about the whammy parts
 in the solo, if you only have a mere white
 gibson les paul with no whammy bar just improvise
 with some feedback and loud noises.


lead part over RIFF A after solo:

------------------------------------------
-9---(9)---10--(10)--9---(9)-------7--(7)-
-11bu(13)--12bu(14)--11bu(13)------9bu(11)
------------------------------------------
------------------------------------------
------------------------------------------

----------------------------------------------------
-9---(9)---13--(13)-13--(13)-------9---(9)--9---(9)-
-11bu(13)--15bu(17)-15bu(17)-------11bu(13)-11bu(13)
----------------------------------------------------
----------------------------------------------------
----------------------------------------------------

------------------------------------------
-9---(9)---10--(10)--9---(9)-------7--(7)-
-11bu(13)--12bu(14)--11bu(13)------9bu(11)
------------------------------------------
------------------------------------------
------------------------------------------

---------------------------
-9---(9)-------------------
-11bu(13)------------------
---------------------------
---------------------------
---------------------------

End Fill: (after last chorus)

 Asus2
-----0-------0--0--------
--------0----0--0--------
-2-----------2--2--------
-2-----------2--2--------
-0-----------0--0--------
-------------------------





Comments


Popular Manic Street Preachers tabs & chords
4st 7lb  1 Bass Tabs
The Everlasting 3 Bass Tabs
4st 7lb  Chords
Fearless Punk Ballad Chords
Last Christmas Chords
Motorcycle Emptiness Chords
Removables  Chords
Democracy Coma Tabs
Slash N Burn 1 Tabs
So Why So Sad Tabs


Song lyrics



↑ Back to top | Tablatures and chords are parodies/interpretations of the original songs. You may use it for private study, scholarship, research or language learning purposes only
© 2014 AZChords.com Contact us | Privacy policy | DMCA | Add/correct tabs | Request tabs | Top 50 tabs