» » »

Bag Lady Tabs (ver.2)

Artists:  A B C D E F G H I J K L M N O P Q R S T U V W X Y Z # 

Bag Lady Tabs (ver.2)

Manic Street Preachers
Rating:
0/5 (0 votes)

Hard to play? Try these video lessons and learn fast.
                -------------------------------------------------------------------------------
                            Bag Lady - Manic Street Preachers
-------------------------------------------------------------------------------

Tuning: Open G

1st Verse
e|--x--x-12-12--------12------12-12----x--x------------------------------------|
B|--x-x 10-10--------10------10--10---x---x------------------------------------|
G|--x-x 10-10--------10------10--10---x--x-------------------------------------|
D|-----------------------------------------------------------------------------|
A|-----------------------------------------------------------------------------|
E|-----------------------------------------------------------------------------|

e|-----0---------------------------------------------0--------------------------| X2
B|----0---------------------------------------------0---------------------------|
G|----2-------5--\--4-----------5--\--4----------2------------------------------|
D|----3--------------------3----------------3-----3-----------------------------|
A|----2-------5---\--4----------5--\--4----------2------------------------------|
E|----0--------------------------------------------0----------------------------|

Rest of verses (Repeat this riff)
e|-----------------------------------------------------------------------------|
B|-----------------------------------------------------------------------------|
G|-----------------------------------------------------------------------------|
D|-----------------------------------------------------------------------------|
A|--------------10--10------------------9--9-----------------------------------|
E|---0--/12----------------0--/11----------------------------------------------|

e|----0--- x---------------------0----x----------------------------------------|
B|---0----x---------------------0----x-----------------------------------------|
G|---2---x----------------------2----x-----------------------------------------|
D|---3---x----------------------3----x-----------------------------------------|
A|---2---x----------------------2----x-----------------------------------------|
E|---0---x----------------------0----x-----------------------------------------|

Bridge
e|------------------------------------------------------------------------------| X2
B|------------------------------------------------------------------------------|
G|------------------------------------------------------------------------------|
D|------------------------------------------------------------------------------|
A|---10---10-10-10-10-----5----5-5-5-5----7---5--3---5--------------------------|
E|----8-----8--8---8---8-----3----3-3-3-3----9---3--5---3-----------------------|

Solo
e|-----------------------------------------------------------------------------|
B|------------------------------------------------5-----------3----------------|
G|-----------------------------------------------7--b-(9)---5--b--7------------|
D|-----------------------------------------------------------------------------|
A|---------10------------10---------10-----------------------------------------|
E|--12-~-------10~----------12-------------------------------------------------|

e|-----------------------------------|
B|---1---------------3---------------|
G|---3--b--5--------5--b--7----------|
D|-----------------------------------|
A|-----------------------------------|
E|-----------------------------------|

e|-----------------------------------------------------------------------------|
B|-----------------------------------------------------------------------------|
G|-----------------------------------------------------------------------------|
D|-----------------------------------------------------------------------------|
A|-----------------------------------------------------------------------------|
E|--12-b--13----12\11\10\9\8\7\6\5\4\3\2\1\0-----------------------------------|

e|------------------------------------------------------------------------------|
B|------------------------------------- --------------10-h-12-------------------|
G|-----------------------------------------10-h-12------------------------------|
D|-------------------------------10-h-12----------------------------------------|
A|---------------------10-h-12--------------------------------------------------|
E|--0--10-h-12------------------------------------------------------------------|

e|---10-h-12-p-10----------10--------------------------------------------------|
B|----------------------12-------------12-p-10------10-------------------------|
G|--------------------------------------------------12-------------------------|
D|-----------------------------------------------------------------------------|
A|-----------------------------------------------------------------------------|
E|-----------------------------------------------------------------------------|


e|----10---10-----------x------------------------------------------------------|
B|---10---10-----12--x-------10----------10----10---------10-------------------|
G|------------------12--x------10-h-12---10----10-h-12---10--------------------|
D|-----------------------------------------------------------------------------|
A|-----------------------------------------------------------------------------|
E|-----------------------------------------------------------------------------|

e|-----------------------------------------------------------------------------|
B|---10----------10------------------------------------------------------------|
G|---10-h-12----10--------12\--------------10--10-------------9--9-------------|
D|--------------------------------------0--/12-------------0--/11--------------|
A|-----------------------------------------------------------------------------|
E|-----------------------------------------------------------------------------|

Repeat bridge.


| /  slide up
| \  slide down
| h  hammer-on
| p  pull-off
| ~  vibrato
| +  harmonic
| x  Mute note
===============================================================================
            
Hard to play? Try these video lessons and learn fast. | Correct




comments powered by Disqus
↑ Back to top | Tablatures and chords are parodies/interpretations of the original songs. You may use it for private study, scholarship, research or language learning purposes only