» » »

Manga, Fly To Stay Alive Tabs (ver.2)

Artists:  A B C D E F G H I J K L M N O P Q R S T U V W X Y Z # 

Fly To Stay Alive Tabs (ver.2)

Manga Tabs
Rating:
0/5 (0 votes)
Hard to play? Try these video lessons and learn fast.
                maNga - fly to stay alive
I learned this song with the live videos, from maNga. I hope this is right and easy to 
read for you. A video coming soon...  :-)



Intro/Verse:
e|------------------------2--------3--------------------|
B|-----------------------3-3-------3--------------------|
G|----------------------2---2-----00--------------------|
D|-----------------0---0---------2-2--------------------|
A|---2-3-2------2-3-3-2---------3--3--------------------|
E|--0-----0----0----------------------------------------| 6X

Pre-Chorus:
e|--3--2-------3-3-3-3---------3--2--X-X-X--------------|
B|--3--3-------3-3-3-3---------3--3--X-X-X--------------|
G|--0--2-------0-0-0-0---------0--2--0-0-0--------------|
D|--2--0-------0-0-0-0---------2--0--2-0-0--------------|
A|--3--0-------2-0-2-0---------3--0--2-0-0--------------|
E|--X--X-------3-2-3-2---------X--X--0-3-2--------------|

Chorus:
e|--0--X--X--0-------X--X--3-----------0--------------------------|
B|--0--X--X--0-------X--X--3-----------2--------------------------|
G|--0--0--0--0-------0--0--0-----------2--------------------------|
D|--2--0--0--2-------0--0--2-----------2--------------------------|
A|--2--0--0--2-------0--0--3-----------0--------------------------|
E|--0--3--2--0-------3--2--0-----------0--------------------------| 4X

   Fly-ba-by-Fly We got-ta-fly to stay alive




Fly to stay alive:
1) Intro
2) Verse
3) Pre-chorus
4) chorus
5) intro
6) verse
7) pre-chorus
8) chorus
9) intro
10)chorus
11)intro
            

comments powered by Disqus
↑ Back to top | Manga Tabs for Fly To Stay Alive. Lyrics for acoustic guitar and electric guitar. Tablatures and chords are parodies/interpretations of the original songs. You may use it for private study, scholarship, research or language learning purposes only