» » »

Manchester Orchestra, Shake It Out Tabs (ver.1)

Artists:  A B C D E F G H I J K L M N O P Q R S T U V W X Y Z # 

Shake It Out Tabs (ver.1)

Manchester Orchestra Tabs
 Rating:
4/5 (4 votes)
Shake It Out lessons Tabs too difficult? Try these video lessons and learn fast
1
                Manchester Orchestra
"Shake It Out"
Mean Everything to Nothing

Tuning: Drop Db (Db Ab Db Gb Bb Eb)

Hey guys. Since Manchester Orchestra's new record "Simple Math" will be
coming out on May 10th, 2011, I think it's about time that we get a proper
tab up for this song! It's the one that really got me to pay attention to
this band back in 2009 and now they are some of my favorite gentlemen. ;-)
This tab combines Andy and Robert's parts so that it can be played by one guitar.


Intro: (x4)

Eb-----------------------------------------------------------|
Bb-----------------------------------------------------------|
Gb-----------------------------------------------------------|
Db-----------------------------------------------------------|
Ab-----------------------------------------------------------|
Db--9--9--9--9--9--9--9--9--9--9--9--9--9--9--9/4------------|
(The 4th time, don't slide down to the 4th fret, but bend the 9th fret.)

Intro Part II: (x4)

Eb--------------------------------|
Bb--------------------------------|
Gb---------7-----7-----7----------|
Db------------9-----9-----9-------|
Ab--------------------------------|
Db--9--9--------------------------|

Verse: (x2)
   "Shake it out..."
Eb------------------------------------------------------------------------|
Bb------------------------------------------------------------------------|
Gb---------7-----------------7-----------------4------------------7-------|
Db------------9--9--------------9--9--------------5--5--------------9--9--|
Ab------------------------------------------------------------------------|
Db--9--9--------------9--9--------------5--5--------------9--9------------|

Pre-Chorus:
           "Cuz I'm done..."
Eb-------------------------------------------|
Bb-------------------------------------------|
Gb--9~------14~----7~----9~------14~--12~----|
Db--7~------12~----5~----7~------12~--10~----|
Ab--7~------12~----5~----7~------12~--10~----|
Db--7~------12~----5~----7~------12~---------|

Play Intro Part II (x2)

Verse II: (x2)
   "Shake it out..."
Eb--------------------------------------------------------------------------------|
Bb--------------------------------------------------------------------------------|
Gb-11--11--11----11--11--11-------7--7--7----7--7--7------11--11--11---11--11-11--|
Db-9---9---9-----9---9---9--(x2)--5--5--5----5--5--5------9---9---9----9---9--9---|
Ab-9---9---9-----9---9---9--------5--5--5----5--5--5------9---9---9----9---9--9---|
Db-9---9---9-----9---9---9--------5--5--5----5--5--5------9---9---9----9---9--9---|

Play Pre Chorus

Bridge: (x2)

Eb----------------------------------------------------x--x--x--x-------|
Bb----------------------------------------------------x--x--x--x-------|
Gb----------------------------------------------------x--x--x--x-------|
Db----------------------------------------------------x--x--x--x-------|
Ab----------------------------------------------------x--x--x--x-------|
Db--4/9--9--9--9--9--9--9--9--9--9--9--9--9--9--9--9--x--x--x--x-------|

Bridge Part II: (x3)
(Listen for the strumming)
 "Oh, God you gotta..."
Eb---------------------------------------------------------------------|
Bb---------------------------------------------------------------------|
Gb--11----------7----------12--12--12--12--11--11--11----9-------------|
Db--9--(x16)----5--(x4)----x---x---x---x---x---x---x-----7--(x8)-------|
Ab--9-----------5----------10--10--10--10--9---9---9-----7-------------|
Db--9-----------5----------------------------------------7-------------|

Outro Part I: (x6)
(Clean)
    "I felt the Lord begin..."
Eb-----------------------------------------------------------------------|
Bb-----------------------------------------------------------------------|
Gb--11--11--14--14--7--7----7--7--7--7/9---------------------------------|
Db--9---9---12--12--5--5----5--5--5--5/9---------------------------------|
Ab--9---9---12--12--5--5----5--5--5--5/9---------------------------------|
Db--9---9---12--12--5--5----5--5--5--5/7---------------------------------|

Outro Part II: (x8)
(Distorted)
                                  (Add these notes for extra kick!)
Eb-----------------------------------------------------------------|
Bb-----------------------------------------------------------------|
Gb--11--11--14--14--7--7----7--7-----------------------------------|
Db--9---9---12--12--5--5----5--5-----------------------------------|
Ab--9---9---12--12--5--5----5--5--10--9--10--9--10--9--10--9-------|
Db--9---9---12--12--5--5----5--5-----------------------------------|

Outro Part III: (x2)
(More like what Chris plays but it works.)

Eb-------------------------------------------------------------------------|
Bb-------------------------------------------------------------------------|
Gb--7--7--9--9--11--11~--11^--11^--11^----12--12--11--11--7--6~----6^--6^--|
Db-------------------------------------------------------------------------|
Ab-------------------------------------------------------------------------|
Db-------------------------------------------------------------------------|

Outro Part IV:

Eb---------------------------------------------------|
Bb---------------------------------------------------|
Gb--2--2--4--4--7--7~--------2--2--4--4--------------|
Db---------------------------------------2--2~-------|
Ab---------------------------------------2--2~-------|
Db---------------------------------------2--2~-------|

Outro Part V:
   "Oh, God you gotta..."
Eb--------------------------------------------------------------|
Bb--------------------------------------------------------------|
Gb--11--11--11----11--11--11----11--11--11----11--11--11\-------|
Db--9---9---9-----9---9---9-----9---9---9-----9---9---9-\-------|
Ab--9---9---9-----9---9---9-----9---9---9-----9---9---9-\-------|
Db--9---9---9-----9---9---9-----9---9---9-----9---9---9-\-------|


That's it! I apologize if it's a little bit confusing but there is a lot of
parts and a lot of variations on them that appear throughout the song. Feel
free to leave comments and corrections and don't forget to pick up the new
record when it comes out! Thanks.

Key:
^ - Bend
~ - Let Ring
/ - Slide Up
\ - Slide Down
            
Submit corrections

comments powered by Disqus
↑ Back to top | Manchester Orchestra Tabs for Shake It Out. Lyrics for acoustic guitar and electric guitar. 1 Tablatures and chords are parodies/interpretations of the original songs. You may use it for private study, scholarship, research or language learning purposes only