» » »

Manchester Orchestra, Please Dont Go Tabs (ver.2)

Artists:  A B C D E F G H I J K L M N O P Q R S T U V W X Y Z # 

Please Dont Go Tabs (ver.2)

Manchester Orchestra Tabs
 Rating:
4/5 (4 votes)
Please Dont Go lessons Tabs too difficult? Try these video lessons and learn fast
                Tuning - standard
Just three basic parts to this song.

Intro and verse, took this from dennis030
e|--------------------------------------------------------|
b|--------------------------------------------------------|
G|----5-5---5-5---5-5---5-5---5-5---4-4---5-5---4---------|
D|----5-5---5-5---5-5---5-5---5-5---5-5---5-5---5---------|
A|--3-----0-----3-----0----------------------------0------|
E|--------------------------3-----3-----3-----3-----------|

chorus     (sometime just strum the c once instead of playing it through)
e|------------------------------------------------|
b|-------------------0-----------1-----------1----|
g|-------2-------------0-------2---2-------0---0--|
d|-----3---3-------0-----0---2-------2---2-------2|
a|---3-------3---2---------0-----------3----------|
e|-1-----------3----------------------------------|
  
bridge
e|----------------------------------------|
b|----------------------------------------|
g|---------------5---------------------5~-|
d|-7------3------5-(x16)-7------3------5~-|
a|-7-(x6)-3-(x6)-3-------7-(x6)-3-(x6)-3~-|
e|-5------1--------------5------1---------|
            
Submit corrections

comments powered by Disqus
↑ Back to top | Manchester Orchestra Tabs for Please Dont Go. Lyrics for acoustic guitar and electric guitar. Tablatures and chords are parodies/interpretations of the original songs. You may use it for private study, scholarship, research or language learning purposes only