>
 >
Now That You're Home

Now That You're Home Guitar Tabs

Manchester Orchestra - Now That You're Home chords, tabs, tablatures, lyrics

Guitar lessons | Add/correct | Request | Top 50 tabs Artists:  A B C D E F G H I J K L M N O P Q R S T U V W X Y Z 0-9

Now That You're Home Guitar Tabs – Manchester Orchestra

CD, Sheet music, Poster

Do you like Now That You're Home? Share with your friends now
ChordsChords v2TabsTabs v2
Hey i was listening to this song and it sounded really easy and fun so I tabbed it. It 
how they play it live and is 100% correct. Listen for timing as certain parts are a bit tricky.
Tuning: Standard


Intro:
(Guitar 1-hard dist)
e--------------------------------------------| 2x- Without drums
B-1-1-1-1-1--1-1-1-1-1--1-1-1-1-1--1-1-----1-| 2x- With drums and 2nd guitar
G-2-2-0-0-2--2-2-0-0-2--2-2-0-0-2--2-2-----2-|
D-2-2-2-2-2--2-2-2-2-2--2-2-2-2-2--2-2-2-2-2-|
A-0-0-3-3-0--0-0-3-3-0--0-0-3-3-0--0-0-2-2-0-|
E--------------------------------------0-0---|

e-0--0----0-|
B-1---1---1-|
G-2----0--2-|
D-2-------2-|
A-0-------0-|
E-----------|


Verse 1:
(Guitar 1-clean)
(Guitar 2-just hang out. look cool)
  C           Am          F           G
e------0-----------0-----------0---------3---3-|
B---------1-----------1-------1---1-------3---3-|
G-----0-----------2-----0---2-------2-----0---0-|
D---2-----------2---------3---------------0---0-|
A-3---------3-0-------------------------2-2h3-2-|
E-------------------------------------3---------|

  C           Am          F           G
e------0-----------0-----------0-------|
B---------1-----------1-------1---1-----|
G-----0-----------2-----0---2-------2---|
D---2-----------2---------3-------------|
A-3---------3-0-------------------------|
E-------------------------------------3-|


Interlude:
(Guitar 1 and 2-distorted)
e--------------------------------------------|
B-1-1-1-1-1--1-1-1-1-1--1-1-1-1-1--1-1-----1-|
G-2-2-0-0-2--2-2-0-0-2--2-2-0-0-2--2-2-----2-|
D-2-2-2-2-2--2-2-2-2-2--2-2-2-2-2--2-2-2-2-2-|
A-0-0-3-3-0--0-0-3-3-0--0-0-3-3-0--0-0-2-2-0-|
E--------------------------------------0-0---|

e------------------------------------------|
B-1-1-1-1-1--1-1-1-1-1--1-1-1-1-1--1-1-----| *Note the subtle change in
G-2-2-0-0-2--2-2-0-0-2--2-2-0-0-2--2-2-----|  rhythm at the end of 2nd
D-2-2-2-2-2--2-2-2-2-2--2-2-2-2-2--2-2-2-2-|  time through.
A-0-0-3-3-0--0-0-3-3-0--0-0-3-3-0--0-0-2-2-|
E--------------------------------------0-0-|

e----------------------------------------------|
B-1-1-1-1-1--1-1-1-1-1--1-1-1-1-1--1-1-----1-1-| *Note once again the change.
G-2-2-0-0-2--2-2-0-0-2--2-2-0-0-2--2-2-----2-2-|  The beat was dropped
D-2-2-2-2-2--2-2-2-2-2--2-2-2-2-2--2-2-2-2-2-2-|  before, and is now added
A-0-0-3-3-0--0-0-3-3-0--0-0-3-3-0--0-0-2-2-0-0-|  back.
E--------------------------------------0-0-----|

e--------------------------------------------|
B-1-1-1-1-1--1-1-1-1-1--1-1-1-1-1--1-1-----1-|
G-2-2-0-0-2--2-2-0-0-2--2-2-0-0-2--2-2-----2-|
D-2-2-2-2-2--2-2-2-2-2--2-2-2-2-2--2-2-2-2-2-|
A-0-0-3-3-0--0-0-3-3-0--0-0-3-3-0--0-0-2-2-0-|
E--------------------------------------0-0---|

e-0~~-0-|
B-1~~-1-| Bend first chord a bit.
G-2~~-2-|
D-2~~-2-|
A-0~~-0-|
E-------|


Verse2:
(Guitar 1-mostly clean, has a little bit of distortion)
(Guitar 2- light distortion- just play the root note of each chord)
  C           Am          F           G
e------0-----------0-----------0---------3-3-|
B---------1-----------1-------1---1-------3-3-|
G-----0-----------2-----0---2-------2-----0-0-|
D---2-----------2---------3---------------0-0-|
A-3---------3-0-------------------------2-2-2-|
E-------------------------------------3---3-3-|

  C           Am          F           G
e------0-----------0-----------0-----------3-----|
B---------1-----------1-------1---1-----------3---|
G-----0-----------2-----0---2-------2-----0-----0-|
D---2-----------2---------3-------------0---------|
A-3---------3-0-----------------------------------|
E-------------------------------------3-----------|

  F           G
e-------0-----------3-|
B-----1---1---------3-|
G---2-------2-----0-0-|
D-3-------------0-----|
A---------------------|
E-------------3-------|


Bridge:
(Guitar 1 and 2-distorted)
e--------------------------------------------------|
B--------------------------------------------------| *=Palm muted in case
G--------------------------------------------------|   you didn't know :)
D-7-7-7-5-5-5-3-3-3-3-3-3--3-3-3-3-3-3-5-5-5-5-5-5-|
A-7-7-7-5-5-5-3-3-3-3-3-3--3-3-3-3-3-3-5-5-5-5-5-5-|
E-5-5-5-3-3-3-1-1-1-1-1-1--1-1-1-1-1-1-3-3-3-3-3-3-|
                           * * * * * * * * *
e-------------------------|
B-------------------------|
G-------------------------|
D-7-7-7-5-5-5-3-3-3-3-3-3-| 3x
A-7-7-7-5-5-5-3-3-3-3-3-3-|
E-5-5-5-3-3-3-1-1-1-1-1-1-|

'Cause I heard...
e-0---1-|
B-1---1-|
G-2---1-|
D-3---3-|
A3---3-|
E-------|


Interlude:
(Guitar 1 and 2- distorted)
e--------------------------------------------|
B-1-1-1-1-1--1-1-1-1-1--1-1-1-1-1--1-1-----1-|
G-2-2-0-0-2--2-2-0-0-2--2-2-0-0-2--2-2-----2-| 2x
D-2-2-2-2-2--2-2-2-2-2--2-2-2-2-2--2-2-2-2-2-|
A-0-0-3-3-0--0-0-3-3-0--0-0-3-3-0--0-0-2-2-0-|
E--------------------------------------0-0---|

e-----------------------------------------|
B-1-1--1-1--1-1--1-1--1-1--1-1--1-1-----1-| *Note rhythm change
G-2-2--2-0--2-2--2-0--2-2--2-0--2-2-----2-|  (Cut-time feel)
D-2-2--2-2--2-2--2-2--2-2--2-2--2-2-2-2-2-|        2x
A-0-0--0-3--0-0--0-3--0-0--0-3--0-0-2-2-0-|
E-----------------------------------0-0---|

Outro:
(Guitar 1-clean)
  F      C      G      Am     F      C      G       Am
e----0------0------3------0------0------0------3----0-|
B---1-1------1------3------1----1-1------1------3---1-| 2x
G--2---2---0--0------0---2--2--2---2---0--0------0--2-|
D-3-------2-------0-----2-----3-------2-------0-----2-|
A--------3-------2-----0-------------3-------2------0-|
E---------------3---------------------------3---------|

(Guitar 2-distorted)
e-----------------------------0-------------3-------0-|
B-----------------------------1------1------3-------1-| *Build up
G-----------------------------2-(6x)-0-(6x)-0-(6x)--2-|
D-----------------------------3------2------0-------2-|
A------------------------------------3------2-------0-|
E-------------------------------------------3---------|

e-0-------------3-------------0-------------3-------0-|
B-1------1------3------1------1------1------3-------1-|
G-2-(6x)-0-(6x)-0-(6x)-2-(6x)-2-(6x)-0-(6x)-0-(6x)--2-|
D-3------2------0------2------3------2------0-------2-|
A--------3------2------0-------------3------2-------0-|
E---------------3---------------------------3---------|

Outro Outro:
(Guitar 1 and 2-distort)
e-----------------------------|
B-----------------------------|
G--------5--------------------|
D-3------5-(6x)-5------7------|
A-3-(6x)-3------5-(6x)-7-(6x)-|
E-1-------------3------5------|

e---------------------------------------|
B---------------------------------------|
G--------5------------------------------|
D-3------5-(6x)-5------7--7-7--7-7--7-7-|
A-3-(6x)-3------5-(6x)-7--7-7--7-7--7-7-|
E-1-------------3------5--5-5--5-5--5-5-|





Comments


Popular Manchester Orchestra tabs & chords
Virgin Bass Tabs
I Was A Lid Chords
If I Were To Die 1 Chords
Simple Math Chords
The Neighborhood Is Bleeding Chords
The Other Side Chords
Where Have You Been 3 Tabs
Alice And Interiors Ukulele
Golden Ticket Ukulele
I Can Feel Your Pain Ukulele


Song lyrics



↑ Back to top | Tablatures and chords are parodies/interpretations of the original songs. You may use it for private study, scholarship, research or language learning purposes only
© 2014 AZChords.com Contact us | Privacy policy | DMCA | Add/correct tabs | Request tabs | Top 50 tabs