>
 >
Rayando El Sol 2

Rayando El Sol 2 Guitar Tabs

Mana - Rayando El Sol 2 chords, tabs, tablatures, lyrics

Guitar lessons | Add/correct | Request | Top 50 tabs Artists:  A B C D E F G H I J K L M N O P Q R S T U V W X Y Z 0-9

Rayando El Sol 2 Guitar Tabs – Mana

CD, Sheet music, Poster

Do you like Rayando El Sol 2? Share with your friends now
Bass TabsChordsTabsTabs v2Ukulele
 riff 1         riff 2         riff 3
e|--5-7-5-3-2-3--|--5-7-8-10-8--|-5-7-5-3-7-8-7-|--------------------|
B|--5-7-5-3-3-3--|--5-7-8-10-8--|-5-7-5-3-7-8-7-|--------------------|
G|---------------|--------------|---------------|--------------------|
D|---------------|--------------|---------------|--------------------|
A|---------------|--------------|---------------|--------------------|
E|---------------|--------------|---------------|--------------------|

Intro:              
G - D - Em - C  
G - Bm - C - D - Em 

            G  C              D   C 
Rayando el sol,   rayando por ti
       G                C            D   C 
esta pena me duele me quema sin tu amor (riff 1)
       Bm          C             D
No me has llamado estoy desesperado (riff 2)
      Bm          C                 D
son muchas lunas las que te he llorado
  
Coro:
              G       D 	    Em  C
Rayando el sol,           desesperacion
        G               Bm                C   D 
es mas facil llegar al sol  que a tu corazon
             G        D             Em     C
Me muero por ti,          viviendo sin ti                  \Entrada a solo/
        G               Bm         C   D			Em      (C.......   
y no aguanto me duele tanto estar asi,    rayando el sol

A tu casa yo fui y no te encontre (riff 1)
en el parque, en la plaza, en el cine yo te busque (riff 3)
Te tengo atrapada entre mi piel y mi alma (riff 2)
mas ya no puedo tanto y quiero estar junto a ti

Coro:

Solo:
  (C) 				(D)				    (Bm)		  (C)(D)
E|-----------10h12-12--10h12-12-10--------12-10----------------10-12-14-10-12--12-12-12-14-15-14---|
B|--10-12-13------------------------10-10--------10-10-10------------------------------------------| 
G|12------------------------------------------------------12-11------------------------------------|
D|-------------------------------------------------------------------------------------------------| 
A|-------------------------------------------------------------------------------------------------|
E|-------------------------------------------------------------------------------------------------|

  ........................................
E|-12h14-11----------------------------|
B|---------12--------------------------| 
G|-----------11-9-8--------------------|
D|-------------------7-5-4-5-4---------| 
A|-----------------------------7-5/7~~-|
E|-------------------------------------| Interlude Armonica: Intro 

Rayando el sol, (rayando...rayando) (Bis)
ay ay ay ay ay ay! Rayando el sol...

Solo Final: (Se acompaņa con los acordes del coro!)
  
e|------------------------------7---5---3-3-3-3-3~--3-5-7-7---|
B|---------5----------------------3---3-----------------------|
G|-----4-5---5-7-7-7-7~~~-5-7-5-------------------------------|
D|-5-7--------------------------------------------------------|
A|------------------------------------------------------------|
E|------------------------------------------------------------| 

E|-7-7-7-7-7-8--7-7-5--5-5-7-5-5-3--3-3-3-2----8-8-7-5-3~-----|
B|-8-8-8-8-8-10-8-8-7--7-7-8-7-7-5--5-5-5-3-------------------| 
G|------------------------------------------------------------|
D|------------------------------------------------------------| 
A|------------------------------------------------------------|
E|------------------------------------------------------------| (Fin)





Comments


Popular Mana tabs & chords
Rayando El Sol Bass Tabs
En El Muelle De San Blas 1 Chords
Eres Me Religion 1 Chords
Ana Tabs
Cuando Los Angeles Lloran 1 Tabs
En El Muelle De San Blas 2 Tabs
Eres Mi Religion Tabs
Robame El Alma Tabs
Ana Ukulele
Somos Mar Y Arena Ukulele


Song lyrics



↑ Back to top | Tablatures and chords are parodies/interpretations of the original songs. You may use it for private study, scholarship, research or language learning purposes only
© 2014 AZChords.com Contact us | Privacy policy | DMCA | Add/correct tabs | Request tabs | Top 50 tabs