» » »

En El Muelle De San Blas Tabs (ver.1)

Artists:  A B C D E F G H I J K L M N O P Q R S T U V W X Y Z # 

En El Muelle De San Blas Tabs (ver.1)

Mana
Rating:
0/5 (0 votes)

Hard to play? Try these video lessons and learn fast.
                E--------------------------------7------------------------- 
B--------------------- 8-----------------8---------------- 
G------------------9------9----------9------9-------------- 
D---------------------------------------------------------- 
A-----------------------------------------------------------               
E------------0--------------------------------------------- 

------------------------------------5-------------------
-------------------------5------------------5-----------
-------------------7---------7---------7-------7--------
--------------------------------------------------------
----------0---------------------------------------------
--------------------------------------------------------

E---------------------------------5-----------------------------
B-----------------------5-----------------5---------------------
G-------------------6------6----------6--------6----------------
D-----------0---------------------------------------------------
A---------------------------------------------------------------
E---------------------------------------------------------------

------------------------------3----------2---0-----
-------------------3---------------3---------------
---------------5------5----------------------------
---------------------------------------------------
---------------------------------------------------
---------0-----------------------------------------    

This is about it just keep repeating it over and over. Mana rocks!
            
Hard to play? Try these video lessons and learn fast. | Correct




comments powered by Disqus
↑ Back to top | Tablatures and chords are parodies/interpretations of the original songs. You may use it for private study, scholarship, research or language learning purposes only