>
 >
Rising Force (Solo)

Rising Force (Solo) Guitar Tabs

Malmsteen Yngwie - Rising Force (Solo) chords, tabs, tablatures, lyrics

Guitar lessons | Add/correct | Request | Top 50 tabs Artists:  A B C D E F G H I J K L M N O P Q R S T U V W X Y Z 0-9

Rising Force (Solo) Guitar Tabs – Malmsteen Yngwie

CD, Sheet music, Poster

Do you like Rising Force (Solo)? Share with your friends now
Tabs
p = pull off
h = hammer
/ = slide up
\ = slide down
b = bend
v = vibrato

Solo 1

|-15p12--15p12--15p12--14p12--15p12--17p12--15p12--14p12--15p12--15p12---|
|------12-----12-----12-----12-----12-----12-----12-----12-----13-----13-|
|------------------------------------------------------------------------|
|------------------------------------------------------------------------|
|------------------------------------------------------------------------|
|------------------------------------------------------------------------|

|-15p12--14p12--15p12--17p12--15p12--14p12--17p14--17p14--17p14--15p14---|
|------13-----13-----13-----13-----13-----13-----15-----15-----15-----15-|
|------------------------------------------------------------------------|
|------------------------------------------------------------------------|
|------------------------------------------------------------------------|
|------------------------------------------------------------------------|

|-17p14--19p14--17p14--15p14--19p15--19\7---7/19p15--19\7--7-|
|------15-----15-----15-----15-----17----8---------17----8---|
|-----------------------------------------9---------------9--|
|------------------------------------------------------------|
|------------------------------------------------------------|
|------------------------------------------------------------|

|-15p12--15p12--15p12--14p12--15p12--17p12--15p12--14p12--15p12--15p12---|
|------12-----12-----12-----12-----12-----12-----12-----12-----13-----13-|
|------------------------------------------------------------------------|
|------------------------------------------------------------------------|
|------------------------------------------------------------------------|
|------------------------------------------------------------------------|

|-15p12--14p12--15p12--17p12--15p12--14p12--17p14--17p14--17p14--15p14---|
|------13-----13-----13-----13-----13-----13-----15-----15-----15-----15-|
|------------------------------------------------------------------------|
|------------------------------------------------------------------------|
|------------------------------------------------------------------------|
|------------------------------------------------------------------------|

|-17p14--19p14--17p14--15p14--19p15--19\7---7/19p15--19\7--7/20p15---20\-|
|------15-----15-----15-----15-----17----8---------17----8---------17----|
|-----------------------------------------9---------------9--------------|
|------------------------------------------------------------------------|
|------------------------------------------------------------------------|
|------------------------------------------------------------------------|

|-8--8/20p15--20\8--8/17p14--17\5--5/17p14--17\5--5/15p12--15\3--3/15p12-|
|--8--------17----8--------15----7--------15----7--------13----5---------|
|---9--------------9--------------7--------------7--------------5--------|
|------------------------------------------------------------------------|
|------------------------------------------------------------------------|
|------------------------------------------------------------------------|

|---15\3--3-5--5--8---8---11--11--14--14--17--17---17-20-19-17-15--------|
|-13----5----7--7--10--10--13--13--16--16--19--19----------------19-17---|
|--------5----8--8--11--11--14--14--17--17--20--20-----------------------|
|------------------------------------------------------------------------|
|------------------------------------------------------------------------|
|------------------------------------------------------------------------|

|------------------------------------------------------------------------|
|-16---------------------------------------------------------------------|
|---17-16-14-------------------------------------------------------------|
|------------17-16-14-13--14b--------------------------------------------|
|------------------------------------------------------------------------|
|------------------------------------------------------------------------|

Solo 2

|-15b---14-----------14-17-16-14-16p14--14--------12---------------------|
|---------17-16-14-16-----------------17--17-16-14--16-14-13-16-14p13p12-|
|------------------------------------------------------------------------|
|------------------------------------------------------------------------|
|------------------------------------------------------------------------|
|------------------------------------------------------------------------|

|------------------------------------------------------------------------|
|------14-12-13p12------13-12-10-9-10p9-----9----------------------------|
|-14-13------------14-13---------------11-9---11-9p8---9p8---------8-9---|
|---------------------------------------------------11----11-10-11-------|
|------------------------------------------------------------------------|
|------------------------------------------------------------------------|

|-----------------------------------------14------14--16v----------------|
|---9-10h12-13h14h16-13h14h16-17-14h16h17---16h17------------------------|
|-11---------------------------------------------------------------------|
|------------------------------------------------------------------------|
|------------------------------------------------------------------------|
|------------------------------------------------------------------------|

Solo 3

|-19vvvvvvv-20-17-19-20p19-17-19-15-17-19p17-15--17-14-15-17p15-14--15--|
|----------------------------------------------19-----------------17----|
|-----------------------------------------------------------------------|
|-----------------------------------------------------------------------|
|-----------------------------------------------------------------------|
|-----------------------------------------------------------------------|

|-14-15p14-12-11-12p11---------------------------19vvvv-19b--7-8-5-7----|
|---------------------13-12------------------------------------------8--|
|---------------------------14-12p11------------------------------------|
|-----------------------------------14-13p10-9--------------------------|
|---------------------------------------------12------------------------|
|-----------------------------------------------------------------------|

|-5-----------------------------------------------|
|---8-7-5-8-7p5---------4p5h4---------------------|
|---------------8\4-5-7-------7p5p4---------------|
|-----------------------------------7p5p4---------|
|-----------------------------------------7-------|
|-------------------------------------------------|

Solo 4

|--------------------------10-12-14p12-----------------------10-12p10----|
|---------------8-10-12-13-------------15-13-12p10---10-12-13---------13-|
|---------8-9-11-----------------------------------12--------------------|
|---7-9-10---------------------------------------------------------------|
|-10---------------------------------------------------------------------|
|------------------------------------------------------------------------|

|----------------7-8-10-8p7----------------7-8p7-------------------------|
|-12-10p8---10-8------------10-8p7--7-8-10-------10-8-7p5--5-7p5---------|
|---------11-----------------------9----------------------8------8-5-4---|
|------------------------------------------------------------------------|
|------------------------------------------------------------------------|
|------------------------------------------------------------------------|

|-----------|
|-----------|
|-----------|
|-7-5p4-----|
|------7-6--|
|-----------|





Comments


Popular Malmsteen Yngwie tabs & chords
Bite The Bullet Tabs
Cry No More 1 Tabs
Evil Eye Tabs
Im My Own Enemy Tabs
Little Savage Tabs
Memories 1 Tabs
Paganinis 5th Caprice Tabs
Riot In The Dungeons Tabs
Teaser Tabs
You Dont Remember Tabs


Song lyrics



↑ Back to top | Tablatures and chords are parodies/interpretations of the original songs. You may use it for private study, scholarship, research or language learning purposes only
© 2014 AZChords.com Contact us | Privacy policy | DMCA | Add/correct tabs | Request tabs | Top 50 tabs