>
 >
Magic Mirror

Magic Mirror Guitar Tabs

Malmsteen Yngwie - Magic Mirror chords, tabs, tablatures, lyrics

Guitar lessons | Add/correct | Request | Top 50 tabs Artists:  A B C D E F G H I J K L M N O P Q R S T U V W X Y Z 0-9

Magic Mirror Guitar Tabs – Malmsteen Yngwie

CD, Sheet music, Poster

Do you like Magic Mirror? Share with your friends now
TabsTabs v2
Yngwie Malmsteen "Magic Mirror"
tune down 1/2 step


|-----------------------------|--------------------------------------------|
|---6------8-------5----------|------5~------------------------------------|
|---7------9-------6----------|------6~------------------------------------|
|-----------------------------|--------------------------------------------|
|-----------------------------|--------------------------------------------|
|-----------------------------|--------------------------------------------|


|---------------------------|-------------|--------------------------------|
|---6------8-------5--------|--6~---------|----6--------8----------5-------|
|---7------9-------6--------|--7~---------|----7--------9----------6-------|
|---------------------------|-------------|--------------------------------|
|---------------------------|-------------|--------------------------------|
|---------------------------|-------------|--------------------------------|


|--------------------|-------------------------|---------------------------|
|----6---------------|---6------8------5-------|----6~---------------------|
|----7---------------|---7------9------6-------|----7~---------------------|
|--------------------|-------------------------|---------------------------|
|--------------------|-------------------------|---------------------------|
|--------------------|-------------------------|-------------------13s-----|


|---------------------------------|--------9-12p9---------------------------|
|---------------------------------|8h10-11----------------------------------|
|-------------------------6h7-9-6-|---------------12p9-12p10-9----10p9------|
|-----------------5h7-8-5---------|----------------------------12------12-11|
|---------4h5-7-4-----------------|-----------------------------------------|
|-3h5-6-3-------------------------|-----------------------------------------|


1. Everyone is searching for the meaning of our life
2. Now your eyes are open and you know you were a fool

|----------------------------|--------------------------|------------------|
|----------------------------|---8------5-------6~------|---6s-------------|
|----------------------------|---9------6-------7~------|---7s-------------|
|----------------------------|--------------------------|------------------|
|----------------------------|--------------------------|------------------|
|----------------------------|--------------------------|------------------|


Reading bout the hell and heaven
You always had the power, but you

|-------------------------------|--------------|---------------------------|
|-----------8-----5------6~-----|--6s----------|---8--------5-----6~-------|
|-----------9-----6------7~-----|--7s----------|---9--------6-----7~-------|
|-------------------------------|--------------|---------------------------|
|-------------------------------|--------------|---------------------------|
|-------------------------------|--------------|---------------------------|


believing all those lies.                    Look upon your-
never broke the rules                         Once again I

|--------------|----------------------------|------------------------------|
|---6s---------|-----------8------5---------|----6-------------------------|
|---7s---------|-----------9------6---------|----7-------------------------|
|--------------|----------------------------|------------------------------|
|--------------|----------------------------|------------------------------|
|--------------|----------------------------|------------------------------|


self   imagine you are two
say, the strength that we are all searching for

|--------------|-------------|----------------------|----------------------|
|-5------------|-------------|------3---------------|----3-----------------|
|-5------------|---2---------|------2---------------|----3-----------------|
|-5------------|---3---------|------4---------------|----5-----------------|
|--------------|-------------|----------------------|----------------------|
|--------------|-------------|----------------------|----------------------|


power lies within                               this is true
high and low we look,                           till the day

|-------------------------|-------------------------|-----------------------|
|-------------------------|-------------------------|-----------------------|
|-9--9--9--9--9--9--9--9--|-9--9--9--9--9--9--9--9--|10-10-10-10-10-10-10-10|
|-9--9--9--9--9--9--9--9--|-9--9--9--9--9--9--9--9--|-7--7--7--7--7--7--7--7|
|-7--7--7--7--7--7--7--7--|-7--7--7--7--7--7--7--7--|-----------------------|
|-------------------------|-------------------------|-----------------------|

                             Can't you see,     it's clear like a mirror

|-------------------------|------------------------|------------------------|
|-------------------------|------------------------|------------------------|
|-9--9--9--9---9--9--9--9-|------------------------|---------------3--3--3--|
|s7--7--7--7---7--7--7--7-|-3--3--3--3--3--3--3--3-|3--3--3--3--3--3--3--3--|
|-------------------------|-1--1--1--1--1--1--1--1-|1--1--1--1--1--1--1--1--|
|-------------------------|------------------------|------------------------|


            It's all within what you're searching for
            It's only been what you're searching for

|-------3-------3--|---------------------|---------------------------------|
|------------3-----|---------------------|---------------------------------|
|-0----------------|-5--5--5--5----------|-------------------------6h7-9-6-|
|-0----------------|-5--5--5--5----------|-----------------5h7-8-5---------|
|-2----------------|-3--3--3--3--4----4--|---------4h5-7-4-----------------|
|------------------|---------------------|-3h5-6-3-------------------------|


                                            Magic mirror

|---------9-12p9----------------------------|----------------|-------------|
|-8h10-11-----------------------------------|-----6----8---5-|-6-----------|
|----------------12p9-12p10-9----10p9-------|-----7----9---6-|-7-----------|
|-----------------------------12------12-11-|12--------------|-------------|
|-------------------------------------------|----------------|---1-0-1-4---|
|-------------------------------------------|----------------|-------------|

                                             Magic mirror

|------------------|-------------------------|-----------------------------|
|-----8-------5----|---6---------------------|----------8-------5----------|
|-----9-------6----|---7---------------------|----------9-------6----------|
|------------------|-------3--3--3-----------|-----------------------------|
|------------------|-------1--0--1--4--------|-----------------------------|
|------------------|-------------------------|-----------------------------|


|-------------------|----------------------|-------------------||----------|
|---6~--------------|--------8-------5-----|---6~--------------||-8----5---|
|---7~--------------|--------9-------6-----|---7~--------------||-9----6---|
|-------------------|----------------------|--------3--3--3----||----------|
|------1--0--1--4---|----------------------|--------1--0--1--4-||----------|
|-------------------|----------------------|-------------------||----------|

Interlude

|-19-22p20-18s15-18-17-15-17-20p18p17s13-17-15-13-|15-18p17p15-12-15p13p12--|
|-------------------------------------------------|-------------------------|
|-------------------------------------------------|-------------------------|
|-------------------------------------------------|-------------------------|
|-------------------------------------------------|-------------------------|
|-------------------------------------------------|-------------------------|
|                                                 |
|                                                 |
|-------------------------------------------------|-------------------------|
|-------------------------------------------------|-------------------------|
|-------------------------------------------------|-------------------------|
|-5-----------------------------------------------|-------------------------|
|-------------7------------8----------5-----------|-7----------4------------|
|-------------------------------------------------|-------------------------|


|---13----------15----------|-17----------18-------------|17h18-15h18-13h18-|
|15----15-14h15----15-14h15-|----15-14h15----15-14h15p14-|------------------|
|---------------------------|----------------------------|------------------|
|---------------------------|----------------------------|------------------|
|---------------------------|----------------------------|------------------|
|---------------------------|----------------------------|------------------|
|                           |                            |
|                           |                            |
|---------------------------|----------------------------|------------------|
|---------------------------|----------------------------|------------------|
|---------------------------|----------------------------|------------------|
|---------------------------|----------------------------|------------------|
|-5----------------7--------|--8--------------10---------|10s12-------------|
|---------------------------|----------------------------|------------------|


|----18----18-------------15-17-|-18-15-17----15----------------------------|
|-17----15----14-15-17-18-------|----------18----17-18-15-17----15----------|
|-------------------------------|----------------------------18----15-18-14-|
|-------------------------------|-------------------------------------------|
|-------------------------------|-------------------------------------------|
|-------------------------------|-------------------------------------------|
|                               |
|                               |
|-------------------------------|--6--3--5----3-----------------------------|
|-------------------------------|----------6------5--6--3--5-----3----------|
|-------------------------------|-----------------------------6-----3--6--2-|
|-------------------------------|-------------------------------------------|
|-------0-----------------------|-------------------------------------------|
|-------------------------------|-------------------------------------------|


|--------|------------------------------|
|--------|------------------------------|
|-15-----|-14---------------------------|
|----17--|----15-17-14-15----14---------|
|--------|----------------17----16-17~--|
|--------|------------------------------|
|        |                              |
|        |                              |
|--------|------------------------------|
|--------|------------------------------|
|--3-----|--2---------------------------|
|-----5--|-----3--5--2--3-----2---------|
|--------|-----------------5-----4--5~--|
|--------|------------------------------|


Guitar solo

|-13h15p13p11----------------11h13-15-11-13-15s16-13-15-16s18-18p15--------|
|-------------15-13p11-13-15----------------------------------------16-----|
|--------------------------------------------------------------------------|
|--------------------------------------------------------------------------|
|--------------------------------------------------------------------------|
|--------------------------------------------------------------------------|


|-------18p15-20p15-18p15----------18p15-18~-|----------------15p11-15s20---|
|----16-------------------16----16-----------|-------------13---------------|
|-15-------------------------15--------------|----------12------------------|
|--------------------------------------------|s13p12-13---------------------|
|--------------------------------------------|------------------------------|
|--------------------------------------------|------------------------------|


-19--20~---|-10h11p10----10------------|-11p8------11p8----13p8-11p8--------|
-----------|----------13----13~---13~--|------11p8------11-----------11-8---|
-----------|---------------------------|------------------------------------|
-----------|---------------------------|------------------------------------|
-----------|---------------------------|------------------------------------|
-----------|---------------------------|------------------------------------|


-11----8|h11p8----8---------------8---------------------------|-------------|
----11--|------11---11p8h11p8-------11-8----------------------|-0-15-13-12h-|
--------|---------------------10---------11-10-8----8bf-rb8~--|-------------|
--------|----------------------------------------10-----------|-------------|
--------|-----------------------------------------------------|-------------|
--------|-----------------------------------------------------|-------------|


----11----------13----15----16p13-|-15p11-13-11-----------------------------|
-13----13-12-13----13----13-------|-------------15-13-12s11-13-12-11--------|
----------------------------------|----------------------------------13p12--|
----------------------------------|-----------------------------------------|
----------------------------------|-----------------------------------------|
----------------------------------|-----------------------------------------|


-------------|-------------------13-15------13----13h|16----13-16s19~-------|
-------------|-------------13s16---------------15----|---15-----------------|
-p10---------|-------10h12---------------------------|----------------------|
-----13-12~--|-12h13---------------------------------|----------------------|
-------------|---------------------------------------|----------------------|
-------------|---------------------------------------|----------------------|


-16----16-20bf--rb--|-19tr20--s15h16-|---15--------------------------------|
----18--------------|----------------|18----16-18-15-16----15--------------|
--------------------|----------------|------------------17----16brb-brb----|
--------------------|----------------|-------------------------------------|
--------------------|----------------|-------------------------------------|
--------------------|----------------|-------------------------------------|


|----------12p9-12s15p12----15s18p15----s21p17----17-21-|21b--21s--s18p17p15-|
|-11p8-------------------14----------17--------20-------|--------------------|
|-------------------------------------------------------|--------------------|
|-------11----------------------------------------------|--------------------|
|-------------------------------------------------------|--------------------|
|-------------------------------------------------------|--------------------|


----------------|----------------------------------------------------------|
-18-17-15-14-15-|-17-15-14-------------------------------------------------|
----------------|----------15p14-----14p12--------------------10-12-12bf---|
----------------|----------------s15-------14p12s11--12-11h12--------------|
----------------|----------------------------------------------------------|
----------------|----------------------------------------------------------|


|---------------|
|---------------|
|---(12)~-------|
|---------------|
|---------------|
|---------------|


Magic mirror

|--------------------|-----------------------|-----------|-----------------|
|--6-----8-----5-----|---6~------------------|--8-----5--|-6---------------|
|--7-----9-----6-----|---7~------------------|--9-----6--|-7---------------|
|--------------------|-----------3-----------|-----------|-----3-----------|
|--------------------|-----------1--0--1--4--|-----------|-----1--0--1--4--|
|--------------------|-----------------------|-----------|-----------------|


|--------------|-------------------|-------------|-------------------------|
|---8-----5----|---6---------------|---8---5-----|--6----------------------|
|---9-----6----|---7---------------|---9---6-----|--7----------------------|
|--------------|-------3-----------|-------------|-------3--3--3-----------|
|--------------|-------1--0--1--4--|-------------|-------1--0--1--4--------|
|--------------|-------------------|-------------|-------------------------|


Out chorus

|---------9-12p9----------------------------|-10~----|---------------------|
|-8h10-11-----------------------------------|--------|6s8-10~----6h8-------|
|----------------12p9-12p10p9----10p9-------|--------|---------------------|
|-----------------------------12------12-11-|--------|---------------------|
|-------------------------------------------|--------|---------------------|
|-------------------------------------------|--------|---------------------|

   slow release
       1/2
|-----------------|-------------|-------------13----------15----17----18p13-|
|-6---------------|-------------|-17-15p14-15----15p14-15----15----15-------|
|---9--9b---------|----7~-------|-------------------------------------------|
|-----------------|-------------|-------------------------------------------|
|-----------------|-------------|-------------------------------------------|
|-----------------|-------------|-------------------------------------------|


-15-----|-13----------------------------------------------------------------|
----17--|----15-17-14-15-13-14-13-------15-14-13----------------------------|
--------|-------------------------15-14----------15p14-12-15p14p12s10-12p10-|
--------|-------------------------------------------------------------------|
--------|-------------------------------------------------------------------|
--------|-------------------------------------------------------------------|


|----------------------17----20p17h18p17-----------------|--------s20bf~---|
|-------------------18----18-------------20p18p17-18p17b-|rb17p15----------|
|-12p10-14p10-15p10--------------------------------------|-----------------|
|--------------------------------------------------------|-----------------|
|--------------------------------------------------------|-----------------|
|--------------------------------------------------------|-----------------|


|-16h17p16-15----------16h17p16-15----------16h17p16-15----|------16h17p16-15-|
|-------------18-17-15-------------18-17-15-------------18-|17p15-------------|
|----------------------------------------------------------|------------------|
|----------------------------------------------------------|------------------|
|----------------------------------------------------------|------------------|
|----------------------------------------------------------|------------------|


---------16h17p16-15-18-17-16p15-16-15-|-16h17p16-15----------16h17p16-15----|
18-17p15-------------------------------|-------------18-17-15-------------18-|
---------------------------------------|-------------------------------------|
---------------------------------------|-------------------------------------|
---------------------------------------|-------------------------------------|
---------------------------------------|-------------------------------------|


-------16h17p16-15----|-------16h17p16-15----------17p16-15-18-17p16-15-16-15|
-17p15-------------18-|-17p15-------------18-17p15---------------------------|
----------------------|------------------------------------------------------|
----------------------|------------------------------------------------------|
----------------------|------------------------------------------------------|
----------------------|------------------------------------------------------|


|-16h17p16-15-------------15-17-18p17p15----------15-20bf-|-rb20-18p17-15---|
|-------------18-17-15h17----------------18-17-15---------|-----------------|
|---------------------------------------------------------|-----------------|
|---------------------------------------------------------|-----------------|
|---------------------------------------------------------|-----------------|
|---------------------------------------------------------|-----------------|


----------------------------------------|-----------------------------------|
-18-17-15-14----------15p14-15p14----14-|-15p14-----------------------------|
-------------17p14-17-------------17----|-------17-15p14----15p14-----------|
----------------------------------------|----------------17-------17-15p14--|
----------------------------------------|-----------------------------------|
----------------------------------------|-----------------------------------|


-------------------------------------|-17--17-p13-p12-|-13-s10~-----10-----|
----------------------------------17-|-----17---------|-----------x----13bf|
-------------15p14-------------14----|----------------|---------x----------|
----14-15-17-------17-15p14-15-------|----------------|--------------------|
-17----------------------------------|----------------|--------------------|
-------------------------------------|----------------|--------------------|

                                    1/2
|12p10-------10------------10------------|-10----12b~--10----13p10-13p12p10-|
|------13bf-----13-10---------13-10------|----10----------13----------------|
|---------------------12bf----------13b--|----------------------------------|
|----------------------------------------|----------------------------------|
|----------------------------------------|----------------------------------|
|----------------------------------------|----------------------------------|


-12p10-|-13s17p15p13-15p13-------13----------17h18p17p15----17p15----------|
-------|-------------------17-15----17-15p13-------------18-------18-17----|
-------|-------------------------------------------------------------------|
-------|-------------------------------------------------------------------|
-------|-------------------------------------------------------------------|
-------|-------------------------------------------------------------------|


|-15----------20p18p17----18p17----17--17----------20bf-|-20~-------22bf---|
|----18p17p15----------20-------20--------20p18p17------|------------------|
|-------------------------------------------------------|------------------|
|-------------------------------------------------------|------------------|
|-------------------------------------------------------|------------------|
|-------------------------------------------------------|------------------|


|-22~-----22s--|18-22-20-18-15-18s17-15-17-20-18-17s13-17p15h17|15-18-17-15-|
|--------------|-----------------------------------------------|------------|
|--------------|-----------------------------------------------|------------|
|--------------|-----------------------------------------------|------------|
|--------------|-----------------------------------------------|------------|
|--------------|-----------------------------------------------|------------|


-s12--15p13p12-13----------15----------|-17----------18-------------|17h18--|
------------------15-14h15----15-14h15-|----15-14h15----15p14h15p14-|-------|
---------------------------------------|----------------------------|-------|
---------------------------------------|----------------------------|-------|
---------------------------------------|----------------------------|-------|
---------------------------------------|----------------------------|-------|


-15h18-13-18----18----18-------------15-17-|
-------------17----15----14s15-17-18-------|
-------------------------------------------|
-------------------------------------------|
-------------------------------------------|
-------------------------------------------|


|-18-15-17----15----------------------------------|------------------------|
|----------18----17-18-15-17----15----------------|------------------------|
|----------------------------18----15-18-14-15----|14----------------------|
|----------------------------------------------17-|---15-17-14-15----14----|
|-------------------------------------------------|---------------17----16-|
|-------------------------------------------------|------------------------|
|                                                 |                        |
|                                                 |                        |
|--6--3--5-----3----------------------------------|------------------------|
|-----------6-----5--6--3--5-----3----------------|------------------------|
|-----------------------------6-----3--6--2--3----|--2---------------------|
|-----------------------------------------------5-|-----3--5--2--3-----2---|
|-------------------------------------------------|-----------------5----4-|
|-------------------------------------------------|------------------------|


|--------------|
|--------------|
|-3~-----------|
|--------------|
|--------------|
|--------------|
|              |
|              |
|--------------|
|--------------|
|--------------|
|--------------|
|-5~-----------|
|--------------|





Comments


Popular Malmsteen Yngwie tabs & chords
As Above So Below 1 Bass Tabs
All I Want Is Everything Tabs
Crucify Tabs
Cry No More Tabs
Fire In The Sky Tabs
Krakatau 1 Tabs
Leonardo Tabs
Marching Out 1 Tabs
On The Run Again Tabs
Riot In The Dungeons Tabs


Song lyrics



↑ Back to top | Tablatures and chords are parodies/interpretations of the original songs. You may use it for private study, scholarship, research or language learning purposes only
© 2014 AZChords.com Contact us | Privacy policy | DMCA | Add/correct tabs | Request tabs | Top 50 tabs