» » »

I Ll See The Light Tonight Tabs (ver.2)

Artists:  A B C D E F G H I J K L M N O P Q R S T U V W X Y Z # 

I Ll See The Light Tonight Tabs (ver.2)

Malmsteen Yngwie
Rating:
0/5 (0 votes)

Tabs too difficult? Try these video lessons and learn fast.
                I have not at all tried to do an accurate transcribtion - this is
just the basic riffs. I have not transcribed the solopart, but have
included the interlude.

The first notes are played with the "pinky" on the volumen knob and about
500ms delay.
The interludepart should do a great picking exercise. Sweep-pick, that's
how Yngwie plays.

By the way, this is my first tab-post, so don't be too surprised to see 
some errors. Comments are welcome...

b1	play previous note and bend one fret
r	rebend
'	pull-offs, hammer-ons
/	slide up
\	slide down
~	vibrato
~~	wide vibrato
/\/	vibrato with whammybar



			Yngwie J. Malmsteen
		    I'll see the light tonight
		*********************************
		_________________________________


	    with volumen knob and delay
	---14-b1--r-------------------------------------------------------
	------------------------------------------------------------------
	-----------------------------16~~---------------10-b1--r----------
	------------------------------------------------------------------
	------------------------------------------------------------------
	------------------------------------------------------------------

	3x                        <-------------Riff A------------------
	||--------------------------------------------------------------||
	||--------------------------------------------------------------||
	||------------------------10---------9--------10---------9~-----||
	||------------5-3-'2-'0----7---------7---------7---------7~-----||
	||--5-3-'2-'0----------------0-0-0-0---0-0-0-0---0-0-0-0------0-||
	||--------------------------------------------------------------||


	------------------------------------------------------------------
	------------------------------------------------------------------
	------------------------------------------------------------------
	------------5-3-'2-'0---------------------------------------------
	--5-3-'2-'0-------------2------------5----------8-----11-----14---
	--------------------------1~~----------4~~---------7-----10-----13

	      2x
	------||---------------------------------------------------------
	------||---7----------------------------9~-----------------------
	-2/\/-||---7----------------------------9~-----------------------
	-2/\/-||---7----------------------------9~-----------------------
	-0/\/-||---------------------------------------------------------
	------||--------7-7-7-7-7-7-7-7-7-7-7-------7-7-7-7-7-7-7-7-7-7-7
			 with tumb

	-----------------------------------------------------------------
	---7~-----------------------8/\/-------------------------7~------
	---7~-----------------------7/\/-------------------------7~------
	---7~-----------------------9/\/-------------------------7~------
	------------------------------------------------------------------
	-----7-7-7-7-7-7-7-7-7-7-7--------7-7-7-7-7-7-7-7-7-7-7-----------


	----------------------------------------------------------------||
	--------------------------9~-------------------------5----------||
	--------------------------9~-------------------------6------9---||
	--------------------------9~-------------------------7------9---||
	-----------------------------------------------------0------7---||
	--7-7-7-7-7-7-7-7-7-7-7-------7-7-7-7-7-7-7-7-7-7-7---------0---||

		Riff A 
	-------|-----------------------
	-------|--------------------------
	-------|--10-------------------
	-------|--7-----------------------   and so on.....
	--0-0--|-----0-0-0-0-----------
	-------|--------------------------


	Interlude

	10-13-12-13-10-13-12-13-8-12-10-12-8-12-10-12-7-10-8-10-7-10-8-10-
	------------------------------------------------------------------
	------------------------------------------------------------------
	------------------------------------------------------------------
	------------------------------------------------------------------
	------------------------------------------------------------------


	5-8-7-8-5-8-7-8-10-13-12-13-7-10-8-10-8-12-10-12-5-8-7-8-7-10-8-10
	------------------------------------------------------------------
	------------------------------------------------------------------
	------------------------------------------------------------------
	------------------------------------------------------------------
	------------------------------------------------------------------


	4-7-5-7-5-8-7-8-5-8-7-8-4-7-5-7-7-10-8-10-5-8-7-8-5-8-7-8-7-10-8-
	------------------------------------------------------------------
	------------------------------------------------------------------
	------------------------------------------------------------------
	------------------------------------------------------------------
	------------------------------------------------------------------


	10-10-13-12-13-8-12-10-12-8-12-10-12-10-13-12-13----------------
	-------------------------------------------------9-12-10-12-------
	------------------------------------------------------------7-10-9
	------------------------------------------------------------------
	------------------------------------------------------------------
	------------------------------------------------------------------

                                                   Guitar solo---->
	---------------------------------------------12-17'12---
	--------------------------------------------13------13---
	10----------------------------------------14*-------14-
	---6-9-7-9-------------------------6-7-9-6-7-------------
	-----------5-8-7-5---------5-7-8-5----------------------
	-------------------4-5-7-4-------------------------------
                                                   *dub
            
Tabs too difficult? Try these video lessons and learn fast.




comments powered by Disqus
↑ Back to top | Tablatures and chords are parodies/interpretations of the original songs. You may use it for private study, scholarship, research or language learning purposes only