>
 >
I Am A Viking

I Am A Viking Guitar Tabs

Malmsteen Yngwie - I Am A Viking chords, tabs, tablatures, lyrics

Guitar lessons | Add/correct | Request | Top 50 tabs Artists:  A B C D E F G H I J K L M N O P Q R S T U V W X Y Z 0-9

I Am A Viking Guitar Tabs – Malmsteen Yngwie

CD, Sheet music, Poster

Do you like I Am A Viking? Share with your friends now
TabsTabs v2
YNGWIE MALMSTEEN  -  'I AM A VIKING'



This is a transcription of the intro riff.

Y.M usually tunes down a half tone :  e -> eb	B -> Bb
 				      G -> Gb	D -> Db
				      A -> Ab	E -> Eb


e|------------------------------------------------------------------|
B|------------------------------------------------------------------|
G|------------------------------------------------------------------|
D|----------------------------------5-454-------4---7-575---4-------|
A|----------7---6---7-----------------------7-------------------5---|
E|--0-----------------------0---0-----------------------------------|

    1               2               3               4               




e|------------------------------------------------------------------|
B|------------------------------------------------------------------|
G|----------------------------------5-454-----------4---------------|
D|------------------------------------------7---5-----7-5-4-7-5-4---|
A|----------7---6---7---------------------------------------------5-|
E|--0-----------------------0---0-----------------------------------|

    1               2               3               4               




e|------------------------------------------------------------------|
B|------------------------------------------------------------------|
G|------------------------------------------------------------------|
D|----------------------------------5-454-------4---7-575---4-------|
A|----------7---6---7-----------------------7-------------------5---|
E|--0-----------------------0---0-----------------------------------|

    1               2               3               4              




e|------------------------------------------------------------------|
B|------------------------------------------------------------------|
G|--------------------------------------4-----4-5---4---------------|
D|--------------4-----4-5---4-5-7-4-5-7---5-7-----7---5-7-4-5---4---|
A|--3-5-7-3-5-7---5-7-----7-----------------------------------7---5-|
E|------------------------------------------------------------------|

    1               2               3               4              



e|------------------------------------------------------------------|
B|------------------------------------------------------------------|
G|--5-------------------------------------------------------7-------|
D|--5-----------------------------------------------5-------7-------|
A|--3-----------------------------------------------5-------5-------|
E|--------------------------------------------------3---------------|

    1               2               3               4               



e|------------------------------------------------------------------|
B|------------------------------------------------------------------|
G|--9---------------------------------------------------------------|
D|--9---------------------------------------------------------------|
A|--7---------------------------------------------------------------|
E|--0---------------------------------------------------------------|

    1               2               3               4





Comments


Popular Malmsteen Yngwie tabs & chords
As Above So Below Tabs
Evil Eye (Intro) Tabs
How Many Miles To Babylon Tabs
Icarus Dream Suite Opus 4 Tabs
Leviathan 1 Tabs
Overture 1383 Tabs
Queen Is In Love 1 Tabs
Soldier Without Faith 1 Tabs
Trilogy Suite Op 5 2 Tabs
You Dont Remember Tabs


Song lyrics



↑ Back to top | Tablatures and chords are parodies/interpretations of the original songs. You may use it for private study, scholarship, research or language learning purposes only
© 2014 AZChords.com Contact us | Privacy policy | DMCA | Add/correct tabs | Request tabs | Top 50 tabs