>
 >
Devil In Disguise

Devil In Disguise Guitar Tabs

Malmsteen Yngwie - Devil In Disguise chords, tabs, tablatures, lyrics

Guitar lessons | Add/correct | Request | Top 50 tabs Artists:  A B C D E F G H I J K L M N O P Q R S T U V W X Y Z 0-9

Devil In Disguise Guitar Tabs – Malmsteen Yngwie

CD, Sheet music, Poster

Do you like Devil In Disguise? Share with your friends now
TabsTabs v2
Yngwie Malmsteen "Devil in Disguise"
rhythm guitar tune (6) to D
Intro Nylon string acoustic

|---------1--------------------------|-------1------------------------0----|
|-------3-----3---3---3---3-5---2----|-----3-----3---3---3---3------2------|
|-----2-----3---0---2---------0----0-|---2-----3---0---2----------0--------|
|---0-------------------3---5---2----|-0-------------------3----2----------|
|------------------------------------|-------------------------------------|
|------------------------------------|-------------------------------------|


|-------1----------------------------|-------1--------------------0--------|
|-----3-----3---3---3---3--5----2----|-----3-----3---3---3---3------2------|
|---2-----3---0---2----------0-----0-|---2-----3---0---2--------------0----|
|-0-------------------3----5----2----|-0-------------------3---2-----------|
|------------------------------------|-------------------------------------|
|------------------------------------|-------------------------------------|


|-------1----------------------------|-------1-----------------------0-----|
|-----3-----3---3---3---3--5----2----|-----3-----3---3---3---3-----2-------|
|---2-----3---0---2----------0-----0-|---2-----3---0---2---------0---------|
|-0-------------------3----5----2----|-0-------------------3---2-----------|
|------------------------------------|-------------------------------------|
|------------------------------------|-------------------------------------|


|-------1---------------------------|-------1-------------------0----------|
|-----3-----3---3---3---3-5----2----|-----3-----3---3---3---3-----2--------|
|---2-----3---0---2---------0----0--|---2-----3---0---2-------------0------|
|-0-------------------3---5----2----|-0-------------------3---2------------|
|-----------------------------------|--------------------------------------|
|-----------------------------------|--------------------------------------|


|--------------------------------|-----------------------------------------|
|---------3-------2--------------|---------3--------2----------------------|
|-----2-------3-------2---3-0----|-----2--------3-------2---0-2-3----------|
|---2---2---2---2---2---2-----2--|---2---2----2---2---2---2----------------|
|-0------------------------------|-0---------------------------------------|
|--------------------------------|-----------------------------------------|


|-----------------------------|--3--5--3------------------------------------|
|---------3-------2-----------|--3--3--3------------------------------------|
|-----2-------3-------2---3-2-|--3--3--3------------------------------------|
|---2---2---2---2---2---2-----|--5-----5------/8---8--7---------------------|
|-0---------------------------|---------------/6---5--4---------------------|
|-----------------------------|---------------------------------------------|
                                *(6) tuned to D


Chorus

Don't even try to fool me cause I can see right through you.  It's in your
                                                     eyes, you are the

|--------------------|-------------------|---------------------------------|
|--3---3-------------|---3----3----------|-3----3--------------------------|
|--2---2-------------|---2----2----------|-2----2--------------------------|
|--0---0-------------|---0----0----------|-0----0---------------x\---------|
|--0---0-------------|---0----0----------|-0----0---------------x\---------|
|--------------------|-------------------|---------------------------------|


Devil in disguise

|-3----3-----------------|---------------------------|----------------------|
|-3----3-----------------|---------------------------|----------------------|
|------------------------|---------------------6-----|-----------------6----|
|-5----5----/8-----7-----|------7--8--5--7--3-----7--|-----7--8------7------|
|-----------/6--5--4-----|------5--5--5--5--5--7--5--|-----5--5-5/10-8-7-5~-|
|------------------------|-0--0----------------------|-0-0------------------|

                                                     Hold me, feel me
                                                     Never learning

|---------------------------|-3----3----------------||-------0-------0-----|
|---------------------------|-3----3----------------||-----3---3---3---3---|
|---------------------6-----|-----------------------||o--2-------3---------|
|------7--8--5--7--3-----7--|-5----5----/8-----7----||o--0-----------------|
|------5--5--5--5--5--7--5--|-----------/6--5--4----||---------------------|
|-0--0----------------------|-----------------------||---------------------|


Wound and heal me,  Mend this broken heart
Vengeance burning deep inside your mind

|---0-1p0---------0-------|---0-1h3---------0-----|-------0-----------------|
|-3-------3-----3------3--|-3-------3-----3-----3-|---------1-------------5-|
|-----------2-3------3----|-----------2-3-----3---|-----0-----0-2p0-----2---|
|-------------------------|-----------------------|---2---------------2-----|
|-------------------------|-----------------------|-3---------------4-------|
|-------------------------|-----------------------|-------------------------|

            Though you're near me, you can't hear me as you tear my
            Time will come to when I'll make you stumbling like the

-----------|------0-------0----|---0--1p0---------0-----|---0-1p0---------0-|
-----------|----3---3---3---3--|-3--------3-----3-----3-|-3-------3-----3---|
--2h3-2p0--|--2-------3--------|------------2-3-----3---|-----------2-3-----|
-----------|--0----------------|------------------------|-------------------|
-----------|-------------------|------------------------|-------------------|
-----------|-------------------|------------------------|-------------------|

soul apart                      I can't beat you, can't defeat you
blind leading the blind

-------|--3----3---------------|-------------------------|------------------|
----3--|--3----3---------------|-------------------------|------------------|
--3----|--3----3---------------|-----6-----7-----6-----3-|-----6-----7------|
-------|--5----5----/8-----7~--|-----7-----8-----7-----5-|-----7-----8------|
-------|------------/6--5--4~--|-0-0---0-0---0-0---0-0---|-0-0---0-0---0-0--|
-------|-----------------------|-------------------------|------------------|


-------------|
-------------|
--10------9--|
--12-----11--|
-----0-0-----|
-------------|

You just make me cry inside.

|--------------------------|--3----3---------------------------------------|
|--------------------------|--3----3---------------------------------------|
|-----6-----7-----6-----3--|--3----3---------------------------------------|
|-----7-----8-----7-----5--|--5----5-----/8-----7~-------------------------|
|-0-0---0-0---0-0---0-0----|-------------/6--5--4~-------------------------|
|--------------------------|-----------------------------------------------|


Chorus
Don't even try to fool me   cause I can see right through you It's in your eyes

|---------------------------|----------------------|---------------------------|
|---------------------------|----------------------|---------------------------|
|---------------------6-----|-----------------6----|---------------------6-----|
|------7--8--5--7--3-----7--|-----7--8------7------|------7--8--5--7--3-----7--|
|------5--5--5--5--5--7--5--|-----5--5-5/10-8-7-5~-|------5--5--5--5--5--7--5--|
|-0--0----------------------|-0-0------------------|-0--0----------------------|


You are the devil in disguise    My rage is growing stronger

|-3----3----------------|--------------------------------------------------|
|-3----3----------------|--------------------------------------------------|
|-----------------------|--------------------------------------------------|
|-5----5----/8-----7----|--------------------------------------------------|
|-----------/6--5--4----|--------------------------------------------------|
|-----------------------|--------------------------------------------------|


and I can wait no longer     It's in your eyes you are the devil in disguise

|---------------------------|-3----3----------------|------------12/19b----|
|---------------------------|-3----3----------------|----------------------|
|---------------------6-----|-----------------------|----------------------|
|------7--8--5--7--3-----7--|-5----5----/8-----7----|--/8-----7------------|
|------5--5--5--5--5--7--5--|-----------/6--5--4----|--/6--5--4------------|
|-0--0----------------------|-----------------------|----------------------|


Guitar solo

|--rb19--17h19p17--------17---------22bf-|-19p16-------16p13----16p13-------|
|-----------------20bf~-----20-19~-------|-------18\15-------15-------15-12-|
|----------------------------------------|----------------------------------|
|----------------------------------------|----------------------------------|
|----------------------------------------|----------------------------------|
|----------------------------------------|----------------------------------|


-13p10------10/13p12-10----12p10-------10----------------------------------|
-------12\9-------------13-------13-12----13p12p10-9-12-10p9-10p9----10p9--|


|--------------------------------------------------------------10h12h13p12p10-|
|-10p9-10p9-----------------------------------------9-10h12h13----------------|
|-----------12-10p9----10p9--------------10p9-10-12---------------------------|
|-------------------12------10p9-12p10p9--------------------------------------|
|-----------------------------------------------------------------------------|
|-----------------------------------------------------------------------------|


------------------------------------|--------------------------12tr13/16----|
-13p12p10-9-------------------------|-------------9tr10-12tr13--------------|
------------12p10p9-----------------|-------9tr10---------------------------|
--------------------12-10p9---------|-9tr10---------------------------------|
----------------------------12-11~--|---------------------------------------|
------------------------------------|---------------------------------------|


--12-12h13p12-|-10-12-10-------10-------------------------------------------|
--------------|----------13p12----13p12p10-13-12p10-9h10-12-13-12p10-10-----|
--------------|-------------------------------------------------------------|
--------------|-------------------------------------------------------------|
--------------|-------------------------------------------------------------|
--------------|-------------------------------------------------------------|


---------------------------------------------------------|------10-13p10----|
--12-13-10-11-13/15-12-13-15/17-15-15-13p12-10-12-10-9~--|-9h12----------12-|
---------------------------------------------------------|------------------|
---------------------------------------------------------|------------------|
---------------------------------------------------------|------------------|
---------------------------------------------------------|------------------|


----------------------------|-----------------------------------------------|
--9----9-12p9---------------|-------13bf--rb13-t15p10h13p10h13p10-----------|
----10--------10p7----------|-------------------------------------t16p9h13--|
-------------------9~-------|-----------------------------------------------|
-----------------------12bf-|-rb12------------------------------------------|
----------------------------|-----------------------------------------------|


---------------------------|-----------------------------------10-12-13-----|
---------------------------|------------------9-10-12h13-10-12----------10h-|
--t16p13p9h13-t14p13p12p10-|-9h10p9---9~----9-------------------------------|
---------------------------|--------9-----9---------------------------------|
---------------------------|------------------------------------------------|
---------------------------|------------------------------------------------|


-------12h13p12p10----------/22bf-|-\13p12p10----------/22bf-\13p12p10-------|
-12h13-------------13p12p10-------|-----------13p12p10-----------------13p12-|
----------------------------------|------------------------------------------|
----------------------------------|------------------------------------------|
----------------------------------|------------------------------------------|
----------------------------------|------------------------------------------|


-----/22bf--|-0------------10----------------10-12h13p12p10-12p10-------10--|
-p10--------|---13bf--rb13----13-12-10-12-13----------------------13p12-----|
------------|---------------------------------------------------------------|
------------|---------------------------------------------------------------|
------------|---------------------------------------------------------------|
------------|---------------------------------------------------------------|


--------------------10-12h13-12p10-12p10-|----------------------------------|
--13p12-10-10h12h13----------------------|-13-12-10-13-12-10--9-12-10-9-12--|
-----------------------------------------|----------------------------------|
-----------------------------------------|----------------------------------|
-----------------------------------------|----------------------------------|
-----------------------------------------|----------------------------------|


------------------------------------------------------|----------12h13p12-10-|
--10-9------------------------------------------------|-10h12h13-------------|
-------13-12-10-13-12-10-9----10p9----9~---------9h10-|----------------------|
---------------------------12------12----9h10h12------|----------------------|
------------------------------------------------------|----------------------|
------------------------------------------------------|----------------------|

                        1/2
----------12h13h16--10h|12b--------------------8-12p10p8--------------------|
-13p12-10--------------|---------------9h10h12-----------12p10p9------------|
-----------------------|----------9h10---------------------------12p10------|
-----------------------|-----9h10--------------------------------------9----|
-----------------------|----------------------------------------------------|
-----------------------|----------------------------------------------------|


---------------------------------------|-----------------------------------|
---------------------------------------|-----------------------------------|
--9h10p9------------9------------------|-----------------------------------|
---------12----9h10---12p9-------------|-----------------------------------|
------------12-------------12-11-------|-----------------------------------|
---------------------------------12-10-|--0dive-w/bar----------------------|


Repeat intro


You lie, you steal, you hurt me and soon it won't desert me there is no doubt
My rage is growing stronger and I can't wait no longer It's in your eyes
Don't even try to fool me cause I can see right through you  It's in your eyes
|---------------------------|----------------------|---------------------------|
|---------------------------|----------------------|---------------------------|
|---------------------6-----|-----------------6----|---------------------6-----|
|------7--8--5--7--3-----7--|-----7--8------7------|------7--8--5--7--3-----7--|
|------5--5--5--5--5--7--5--|-----5--5-5/10-8-7-5~-|------5--5--5--5--5--7--5--|
|-0--0----------------------|-0-0------------------|-0--0----------------------|


You are the devil in disguise

|---------------------|-------------------------|--------------------------|
|---------------------|-------------------------|--------------------------|
|---------------------|-5-4--2-----2------------|--------------------------|
|---------------------|---------5-----5--4------|--------------------------|
|---------------------|---------------------2---|--------------------------|
|---------------------|-------------------------|--------------------------|
|                     |                         |                          |
|                     |                         |                          |
|---3----3------------|-----5--5----------------|--------------------------|
|---3----3------------|-5-5-5--5----------------|--------------------------|
|---------------------|-5---5-------------------|-----------------------3--|
|---5----5--/8-----7--|-7--------/10----8-------|-----------------------3--|
|-----------/6--5--4--|----------/8--7--6-------|-2-0-2-3-2-0-2---2-0-2-1--|
|---------------------|-------------------------|-2-0-2-3-2-0-2---2-0-2----|


|-------------------------|--------------------------|
|-------------------------|--------------------------|
|-------------------------|-----------------------3--|
|----------------------0--|-----------------------3--|
|-2-0-2-3-2-0-2--2-0-2-0--|-2-0-2-3-2-0-2---2-0-2-1--|
|-2-0-2-3-2-0-2--2-0-2-0--|-2-0-2-3-2-0-2---2-0-2----|


|-------------------------|--------------------------|----------------------|
|-------------------------|--------------------------|----------------------|
|-------------------------|-----------------------3--|----------------------|
|----------------------0--|-----------------------3--|----------------------|
|-2-0-2-3-2-0-2--2-0-2-0--|-2-0-2-3-2-0-2---2-0-2-1--|----------------------|
|-2-0-2-3-2-0-2--2-0-2-0--|-2-0-2-3-2-0-2---2-0-2----|----------------------|

|-------------------------|--------------------------|----------------------|
|-------------------------|--------------------------|----------------------|
|-------------------------|-----------------------3--|----------------------|
|----------------------0--|-----------------------3--|----------------------|
|-2-0-2-3-2-0-2--2-0-2-0--|-2-0-2-3-2-0-2---2-0-2-1--|----------------------|
|-2-0-2-3-2-0-2--2-0-2-0--|-2-0-2-3-2-0-2---2-0-2----|----------------------|


|--------------------------------------------------------------------------|
|--------------------------------------------------------------------------|
|-------------------------x\-pick-scrape-----------------------------------|
|----------------------0--x\-----------------------------------------------|
|-2-0-2-3-2-0-2--2-0-2-0---------------------------------------------------|
|-2-0-2-3-2-0-2--2-0-2-0---------------------------------------------------|


|---------------------------------|-----------------------------------------|
|---------------------------------|-----------------------------------------|
|---------------------------------|-----------------------------------------|
|---------------------------------|---------------2---3---2-1~-3------------|
|---------2---1---0-----1---0-----|-------2---1-2---3-3-2------3-2----------|
|-2-0-2-3---3---3---2-3---2---1-2-|-0-2-3---3-------------------------------|


|---------------------------------|----------------------------------------|
|---------------------------------|----------------------------------------|
|---------------------------------|----------------------------------------|
|---------------------------------|----------------------------------------|
|-------2---1-------------2---1---|-------2---1-------------2---0----------|
|-0-2-3---3---2-1-0-2-2-3---3---3-|-0-2-3---3---3-2-0-2-2-3---0-3----------|


|-----------------------------------|--------------------------------------|
|-----------------------------------|--------------------------------------|
|-----------------------------------|--------------------------------------|
|-------------------------------3~--|--------------------------------------|
|-----2---1---------1---0-----------|-0-----2----0-------------------------|
|-0-2---3---2-0-1-2---2---3-2-0-----|-0-2-3---3----2-3-0-2-1~--------------|


|----------------------------------|---------------------------------------|
|----------------------------------|---------------------------------------|
|----------------------------------|---------------------------------------|
|-----------2-----------------2----|-0-2---------------2---3---------------|
|-------2---2---------1---2--------|-----2-----------2---3---3-2-0-2-------|
|-0-2-3---3---0-2-2-3---3---3---0--|-------0-3-2-0-0-----------------------|

fade out





Comments


Popular Malmsteen Yngwie tabs & chords
Bedroom Eyes 1 Tabs
Bite The Bullet 1 Tabs
Black Star 1 Tabs
Deja Vu Tabs
Faster Than The Speed Of Light 1 Tabs
I Am A Viking 1 Tabs
Leonardo Tabs
Liar 1 Tabs
Rising Force (Solo) Tabs
Save Out Love 1 Tabs


Song lyrics



↑ Back to top | Tablatures and chords are parodies/interpretations of the original songs. You may use it for private study, scholarship, research or language learning purposes only
© 2014 AZChords.com Contact us | Privacy policy | DMCA | Add/correct tabs | Request tabs | Top 50 tabs