>
 >
Bite The Bullet

Bite The Bullet Guitar Tabs

Malmsteen Yngwie - Bite The Bullet chords, tabs, tablatures, lyrics

Guitar lessons | Add/correct | Request | Top 50 tabs Artists:  A B C D E F G H I J K L M N O P Q R S T U V W X Y Z 0-9

Bite The Bullet Guitar Tabs – Malmsteen Yngwie

CD, Sheet music, Poster

Do you like Bite The Bullet? Share with your friends now
TabsTabs v2


|---------|----------------------------|-----------------------------------|
|---------|----------------------------|-----------------------------------|
|---------|----------------------------|-----------------------------------|
|---------|----------------------------|-----------------------------------|
|---------|---------------------5h7h9--|----------------------5h7h9--------|
|-12s19s--|0--0--3p0--5--0-6h7---------|0--0--3p0--5--0--6h7---------------|


|----------------------------|-----------------------------------|----------
|----------------------------|-----------------------------------|----------
|----------------------------|-----------------------------------|----------
|----------------------------|-----------------------------------|----------
|---------------------5h7h9--|----------------------5h7h9--------|----------
|0--0--3p0--5--0-6h7---------|0--0--3p0--5--0--6h7---------------|----------


|----------------------------|-----------------------------------|----------
|----------------------------|-----------------------------------|----------
|----------------------------|-----------------------------------|----------
|----------------------------|-----------------------------------|----------
|---------------------5h7h9--|----------------------5h7h9--------|----------
|0--0--3p0--5--0-6h7---------|0--0--3p0--5--0--6h7---------------|----------


|----------------------------|-----------------------------------|----------
|----------------------------|-----------------------------------|----------
|----------------------------|-----------------------------------|----------
|----------------------------|-----------------------------------|----------
|---------------------5h7h9--|----------------------5h7h9--------|----------
|0--0--3p0--5--0-6h7---------|0--0--3p0--5--0--6h7---------------|----------



|---------------------------|------------------------|-----------------------|
|---------------------------|------------------------|-----------------------|
|---------------------------|------------------------|-----------------------|
|---------------------------|7p4-5p4-----7p4-5p4-----|7p4-5p4-----7p4-5p4--- |
|---------------------6h7h9-|--------7p6---------7p6-|--------7p6---------7p6|
|-7-7-7-7-7-7-7-5-7-8-------|------------------------|-----------------------|


|----------------------|--------------------------|------------------------|
|----------------------|--------------------------|-------------10p7-8p7---|
|----------------------|--------------------------|9----8---------------9p8|
|7p4-5p4---7p4-5p4-----|7p4-5p4-----10p7-9p7------|--10---10p9p7-----------|
|------7p6---------7p6-|--------7p6----------10p9-|------------------------|
|----------------------|--------------------------|------------------------|

                                             1 1/2
|-------------|-------------|----------------|21b---0-----21b------0-------|
|10p7-8p7-----|-12~---------|----------------|------0--------------0-------|
|---------9p8-|-------------|----------------|------0--------------0-------|
|-------------|-------------|----------------|-----------------------------|
|-------------|-------------|----------------|-----------------------------|
|-------------|-------------|----------------|-----------------------------|


|-s17-------------19h20-19-17-19-17-------|17-------------------------------
|-----20-20-19h20-------------------20-19-|---20-19-17-20-19-17-16-17p16----
|-----------------------------------------|---------------------------------
|-----------------------------------------|---------------------------------
|-----------------------------------------|---------------------------------
|-----------------------------------------|---------------------------------


----------|---------------------------------------------------|-------------
----------|19-17p16----------------------15h17p15-------------|-------------
17p16-----|---------17-16----------16h17----------17-16-17-14-|17p16p14-----
------19--|---------------19-17h19----------------------------|-------------
----------|---------------------------------------------------|-------------
----------|---------------------------------------------------|-------------


---------------------------12-15p12-19p15-|---19p15----20p15----15h19p15----
------------------12----12----------------|17-------17-------17----------17-
---------12-16p12----12-------------------|---------------------------------
17p16p14----------------------------------|---------------------------------
------------------------------------------|---------------------------------
------------------------------------------|---------------------------------


15-19p15-----|15h20p15----15h19p15----15h19p15-17p15h17p15-|---15h17p15h17p-
---------17--|---------17----------17----------------------|19--------------
-------------|---------------------------------------------|----------------
-------------|---------------------------------------------|----------------
-------------|---------------------------------------------|----------------
-------------|---------------------------------------------|----------------

                      1/2
15----15-17-15----15-------|-----------------17-----------15-|20p19p17------
---19----------19----19br--|17~--(0)--20bf-------0-----17----|--------------
---------------------------|-----(0)----------------16-------|--------------
---------------------------|---------------------------------|--------------
---------------------------|---------------------------------|--------------
---------------------------|---------------------------------|--------------


19p17-19p17-------17---------------------|-------------12h15p12h14h15p14p12-|
------------20p19----20-19-17-20-19-17s--|---16bfr-bf-----------------------|
-----------------------------------------|----------------------------------|
-----------------------------------------|0---------------------------------|
-----------------------------------------|----------------------------------|
-----------------------------------------|----------------------------------|


|t19p12h14h15p14p12-t21p12h14h15p14p12-t17p12h14p15p14p12-t19p12h14h15p14p12|
|---------------------------------------------------------------------------|
|---------------------------------------------------------------------------|
|---------------------------------------------------------------------------|
|---------------------------------------------------------------------------|
|---------------------------------------------------------------------------|


|t17p15p14p12h15p12h14-----------------------------------------|------------
|----------------------h15t17p13h15p13-15p13p12----13p12-------|------------
|-----------------------------------------------14-------14-12-|-14-12p11---
|--------------------------------------------------------------|------------
|--------------------------------------------------------------|------------
|--------------------------------------------------------------|------------


-----------------------|---------|------------|-----------------------------
-----------------------|---------|------------|-----------------------------
---9-11-9----9---------|---------|------------|------------------16-14-16---
14--------12-----s14~--|---------|------------|17-14-16-17-16-14------------
-----------------------|-19~-----|--19dive----|-----------------------------
-----------------------|---------|------------|-----------------------------


---------|-----------------------------------|17p16p15h17p15p14-17bf-|
---------|19-16-17-19-17-16-20-17-19-20-19-17|-----------------------|
17-16-14-|-----------------------------------|-----------------------|
---------|-----------------------------------|-----------------------|
---------|-----------------------------------|-----------------------|
---------|-----------------------------------|-----------------------|

trill
|15tr19--12tr15--7tr12--3tr7-|-0tr3--------0dive--|-------------12bfr--12bf|
|----------------------------|------0tr5----------|------------------------|
|----------------------------|--------------------|-9h12~--12--------------|
|----------------------------|--------------------|------------------------|
|----------------------------|--------------------|------------------------|
|----------------------------|--------------------|------------------------|


|-14-11-12-14-14-12-13-15h17|14-15-17s19-17-15----17-15-------15-----------|
|---------------------------|------------------19-------19-17----19-17-16--|
|---------------------------|----------------------------------------------|
|---------------------------|----------------------------------------------|
|---------------------------|----------------------------------------------|
|---------------------------|----------------------------------------------|


|-------------------------------------------------|------------------------|
|-19p17p16----------------------------------------|------------------------|
|----------17-16p14-------------------------------|------------------------|
|-------------------17-16-14-13-------------------|------------------------|
|-------------------------------15-14-12----------|------------------------|
|----------------------------------------15-14-12-|-11---------------------|


|20--19-17-19-20-19|h20p19p17h19p17----------------17-20-17----|------------
|------------------|----------------20p19p17----19----------19-|------------
|------------------|-------------------------20----------------|-20~--------
|------------------|-------------------------------------------|------------
|------------------|-------------------------------------------|------------
|------------------|-------------------------------------------|------------


|-------14-17p14-------------11-14p11-|14~---|12-14-15p14-15s17p16p15h16---|
|----16----------16-------13----------|------|-----------------------------|
|-17----------------17s14-------------|------|-----------------------------|
|-------------------------------------|------|-----------------------------|
|-------------------------------------|------|-----------------------------|
|-------------------------------------|------|-----------------------------|


|-------14-17----14h17-20p19p17-20----------|------------------------------|
|-17-16-------16-------------------19p17-16-|------------------------------|
|-------------------------------------------|19-17p16----------------------|
|-------------------------------------------|---------19p17p16-------------|
|-------------------------------------------|------------------19-18-------|
|-------------------------------------------|------------------------------|

w/echo
|16tr19---18tr21--|---------------------------------|----------------------|
|-----------------|17tr18--15tr17---13h15-t17-15p13-|-12h13p12----12-------|
|-----------------|---------------------------------|----------14----13----|
|-----------------|---------------------------------|----------------------|
|-----------------|---------------------------------|----------------------|
|-----------------|---------------------------------|----------------------|

echo off
|-------------------------------------------12-|17p12----12-17-12-20p17-----
|----------------------17p13-------------13----|------13----------------17--
|-17p14-------------14-------14-------14-------|----------------------------
|-------14-------14-------------14-14----------|----------------------------
|----------15-15-------------------------------|----------------------------
|----------------------------------------------|----------------------------

                       1/2
------17-20p17-|22bf-rb-b--20-19-17-16-------------|------------------------
---17----------|-----------------------18-17-15----|------------------------
17-------------|--------------------------------17-|-16-14-13---------------
---------------|-----------------------------------|----------15-14-12------
---------------|-----------------------------------|------------------------
---------------|-----------------------------------|------------------------


-------------------|
-------------------|
--------------14s--|
-------------------|
15-14-12--12-------|
-------------------|





Comments


Popular Malmsteen Yngwie tabs & chords
Coming Bach Tabs
Crystal Ball Tabs
Disciples Of Hell 1 Tabs
Dreamin Tabs
Far Beyond The Sun 1 Tabs
Golden Dawn Tabs
Ill See The Light Tonight Tabs
Queen Is In Love Tabs
Rising Force 1 Tabs
Trilogy Suite Op 5 2 Tabs


Song lyrics



↑ Back to top | Tablatures and chords are parodies/interpretations of the original songs. You may use it for private study, scholarship, research or language learning purposes only
© 2014 AZChords.com Contact us | Privacy policy | DMCA | Add/correct tabs | Request tabs | Top 50 tabs