» » »

Arpeggios From Hell Tabs (ver.2)

Artists:  A B C D E F G H I J K L M N O P Q R S T U V W X Y Z # 

Arpeggios From Hell Tabs (ver.2)

Malmsteen Yngwie
Rating:
0/5 (0 votes)

Hard to play? Try these video lessons and learn fast.
                (Intro)


this is a great little exercise for practising alternate picking. Sounds great 
if you play it fast.(the faster the better). 



e|--------------------------------------------------7---7-12-7-12-15-14-12-15-14-12|
B|--------------------------------------------8---8---8----------------------------|
G|--------------------------------------9---9---9----------------------------------|
D|--------------------------5---5-9-5-9---9----------------------------------------|
A|--------------------7---7---7----------------------------------------------------|
E|-/0---0-3-0-3-7-3-7---7----------------------------------------------------------|


e|19-15--------------------------------------------------------|
B|------17----17-----------------------------------------------|
G|---------16----16----16--------------------------------------|
D|------------------17----17-14-17-14----14--------------------|
A|------------------------------------14----14-10-14-10--------|
E|------------------------------------------------------12v----|

If you don't know this song download the video coz its awesome!
            
Hard to play? Try these video lessons and learn fast. | Correct




comments powered by Disqus
↑ Back to top | Tablatures and chords are parodies/interpretations of the original songs. You may use it for private study, scholarship, research or language learning purposes only