» » »

Malice Mizer, Eege Sugisarishi Kase To Tomo Ni Bass tabs (ver.1)

Artists:  A B C D E F G H I J K L M N O P Q R S T U V W X Y Z # 

Eege Sugisarishi Kase To Tomo Ni Bass tabs (ver.1)

Malice Mizer Tabs
 Rating:
4/5 (4 votes)
Eege Sugisarishi Kase To Tomo Ni lessons Tabs too difficult? Try these video lessons and learn fast
                Malice Mizer - E-GE ~sugisarishi kaze to tomoni~
Merveilles
Bassist - Yu~ki

another wicked song by Malice Mizer off 'Merveilles'

x=mute   /=slide to

G|--------|-7------|--------|--------|
D|-7------|--------|-5------|--------|
A|--------|--------|--------|-7------|
E|--------|--------|--------|--------|

G|--------|-7------|--------|-7------|
D|-7------|--------|-5------|--------|
A|--------|--------|--------|--------|
E|--------|--------|--------|--------|

G|--------|-7------|--------|--------|
D|-7------|--------|-5------|--------|
A|--------|--------|--------|-7------| x2
E|--------|--------|--------|--------|


G|--------|--------|--------|--------|
D|--------|--------|--------|--------|
A|-3--3---|--------|-2--2---|--------| x3
E|--------|--------|--------|--------|

G|--------|--------|--------|--------|
D|--------|--------|--------|-4------|
A|-3--3---|--------|-2-2/5--|-----2--| 
E|--------|--------|--------|--------|


G|--------|--------|--------|--------|
D|--------|--------|--------|--------|
A|--------|5--5-555|--------|--------|
E|-5--55--|--------|-3--33--|4--4-444|

G|--------|--------|--------|--------|
D|--------|--------|--------|--------|
A|--------|5--5-55-|--------|5-55/7--|
E|-5--55--|--------|-3--33--|-5----73|

G|--------|--------|-----------|------------|
D|--------|--------|-----------|------------|
A|--------|5--5/75-|-----------|--7---------|
E|5-5x5-55|-------5|3-3x3-3-2/4|0---7-/12-7-|

G|--------|--------|--------|--------|
D|--------|--------|--------|--------|
A|--------|2-2x2-2-|--------|--------|
E|5-5x5-5-|--------|0--0-04/|-12-----|


G|--------|--------|--------|--------|
D|--------|--------|--------|--------|
A|33333333|55555555|66666666|77----22|
E|--------|--------|--------|--7722--|

G|--------|--------|--------|--------|
D|--------|--------|--------|--------|
A|33333333|66666666|--------|------22|
E|--------|--------|77777777|002233--|

G|--------|--------|--------|--------|
D|--------|--------|--------|--------|
A|33333333|55555555|66666666|77----22|
E|--------|--------|--------|--7722--|

G|--------|--------|--------|--------|
D|--------|--------|--------|--------|
A|33333333|66666666|--------|------22|
E|--------|--------|77777777|002233--|

G|--------|--------|--------|--------|
D|--------|--------|--------|--------|
A|33333333|55555555|66666666|77777777|
E|--------|--------|--------|--------|

G|--------|--------|
D|--------|--------|
A|--------|------5-|
E|-00-----|3-2-0---|

G|--------|--------|--------|--------|
D|--------|--------|--------|--------|
A|-4--44--|-2--22--|-1--1---|-2------|
E|--------|--------|-----2--|--------|


G|--------|--------|--------|---------|
D|--------|--------|--------|---------|
A|--------|-5------|----5/--|-7--7----|
E|-5------|--------|-3------|-------7-|

G|--------|--------|--------|--------|
D|--------|--------|--------|--------|
A|--------|-5------|--------|77777---|
E|-5------|--------|33333333|-----400|


G|--------|----------|----------|--------|
D|--------|----------|----------|------2-|
A|--------|5-5x5/7/5-|------5---|-----2-2|
E|5-5x5-55|---------5|3-3x3--3/4|0-3/4---|

G|--------|--------|--------|--------|
D|--------|--------|--------|--------|
A|--------|2-2x2-2-|--------|--------|
E|5-5x5-5-|--------|0--0-04/|-12-----|


G|--------|--------|--------|--------|
D|--------|--------|--------|--------|
A|33333333|55555555|66666666|77----22|
E|--------|--------|--------|--7722--|

G|--------|--------|--------|--------|
D|--------|--------|--------|--------|
A|33333333|66666666|--------|------22|
E|--------|--------|77777777|002233--|

G|--------|--------|--------|--------|
D|--------|--------|--------|--------|
A|33333333|55555555|66666666|77----22|
E|--------|--------|--------|--7722--|

G|--------|--------|--------|--------|
D|--------|--------|--------|--------|
A|33333333|66666666|--------|------22|
E|--------|--------|77777777|002233--|

G|--------|--------|--------|--------|
D|--------|--------|--------|--------|
A|33333333|55555555|66666666|77----22|
E|--------|--------|--------|--7722--|

G|--------|--------|--------|----------|
D|--------|--------|--------|----------|
A|33333333|66666666|--------|7---------|
E|--------|--------|77777777|-0-0-0-000|

G|--------|--------|--------|--------|
D|--------|--------|--------|--------|
A|33333333|55555555|66666666|77777777|
E|--------|--------|--------|--------|

G|--------|--------|--------|--------|
D|--------|--------|--------|--------|
A|33333333|66666666|--------|7-------|
E|--------|--------|77777777|-0000000|

G|--------|
D|--------|
A|-7------|
E|-0------|


G|--------|--------|--------|--------|
D|--------|--------|--------|--------|
A|-3------|--------|-2------|--------| x3
E|--------|--------|--------|--------|

G|--------|--------|--------|--------|
D|--------|--------|--------|--------|
A|-3------|--------|-2-----2|--------|
E|--------|--------|--------|--------|
            
Submit corrections

comments powered by Disqus
↑ Back to top | Malice Mizer Bass for Eege Sugisarishi Kase To Tomo Ni. Lyrics for acoustic guitar and electric guitar. Tablatures and chords are parodies/interpretations of the original songs. You may use it for private study, scholarship, research or language learning purposes only