>
 >
Eege Sugisarishi Kase To Tomo Ni

Eege Sugisarishi Kase To Tomo Ni Guitar Tabs

Malice Mizer - Eege Sugisarishi Kase To Tomo Ni chords, tabs, tablatures, lyrics

Guitar lessons | Add/correct | Request | Top 50 tabs Artists:  A B C D E F G H I J K L M N O P Q R S T U V W X Y Z 0-9

Eege Sugisarishi Kase To Tomo Ni Guitar Tabs – Malice Mizer

CD, Sheet music, Poster

Do you like Eege Sugisarishi Kase To Tomo Ni? Share with your friends now
Bass TabsTabs
Malice Mizer - E-GE ~sugisarishi kaze to tomoni~
Merveilles
Guitar 1 - Kozi
Guitar 2 - Mana

enjoy.
numbers in <#> are harmonics.

standard tuning

Guitar 1, Guitar 2 quiet
E|--3-----3-----3-|--3-----3-----3-|
B|----0-----0-----|----0-----0-----|
G|5-----5-----5---|5-----5-----5---| x2
D|----------------|----------------|
A|----------------|----------------|
E|----------------|----------------|

E|--3-----3-----3-|--3-----3-----3-|--2-----2-----2-|--7-----7-----7-|
B|----0-----0-----|----0-----0-----|----0-----0-----|----0-----0-----|
G|5-----5-----5---|5-----5-----5---|4-----4-----4---|7-----7-----7---|
D|----------------|----------------|----------------|----------------|
A|----------------|----------------|----------------|----------------|
E|----------------|----------------|----------------|----------------|

E|--3-----3-----3-|--3-----3-----3-|--2-----2-----2-|--0-----0-----0-|
B|----0-----0-----|----0-----0-----|----0-----0-----|----6-----6-----|
G|5-----5-----5---|5-----5-----5---|4-----4-----4---|7-----------7---|
D|----------------|----------------|----------------|------6---------|
A|----------------|----------------|----------------|----------------|
E|----------------|----------------|----------------|----------------|

E|--3-----3-----3-|--3-----3-----3-|--2-----2-----2-|--7-----7-----7-|
B|----0-----0-----|----0-----0-----|----0-----0-----|----0-----0-----|
G|5-----5-----5---|5-----5-----5---|4-----4-----4---|7-----7-----7---|
D|----------------|----------------|----------------|----------------|
A|----------------|----------------|----------------|----------------|
E|----------------|----------------|----------------|----------------|

E|--3-----3-----3-|--3-----3-----3-|--2-----2-----2-|------4---------|
B|----0-----0-----|----0-----0-----|----0-----0-----|----5-----5-----|
G|5-----5-----5---|5-----5-----5---|4-----4-----4---|--4---------4---|
D|----------------|----------------|----------------|6-------------5-|
A|----------------|----------------|----------------|----------------|
E|----------------|----------------|----------------|----------------|

Guitar 2 (muted), Guitar 1 quiet
E|----3---3-------|----3---3-------|----2---2-------|----2---2-------|
B|--5---5---5-----|--5---5---5-----|--3---3---3-----|--3---3---3-----|
G|5---------------|5---------------|4---------------|4---------------|
D|----------------|----------------|----------------|----------------| x4
A|----------------|----------------|----------------|----------------|
E|----------------|----------------|----------------|----------------|

Guitar 1, Guitar 2 quiet
E|--3-----3-----3-|--3-----3-----3-|--2-----2-----2-|--7-----7-----7-|
B|----0-----0-----|----0-----0-----|----0-----0-----|----0-----0-----|
G|5-----5-----5---|5-----5-----5---|4-----4-----4---|7-----7-----7---|
D|----------------|----------------|----------------|----------------|
A|----------------|----------------|----------------|----------------|
E|----------------|----------------|----------------|----------------|

E|--3-----3-----3-|--3-----3-----3-|--2-----2-----2-|--0-----0-----0-|
B|----0-----0-----|----0-----0-----|----0-----0-----|----6-----6-----|
G|5-----5-----5---|5-----5-----5---|4-----4-----4---|7-----------7---|
D|----------------|----------------|----------------|------6---------|
A|----------------|----------------|----------------|----------------|
E|----------------|----------------|----------------|----------------|

E|--3-----3-----3-|--3-----3-----3-|--2-----2-----2-|--7-----7-----7-|
B|----0-----0-----|----0-----0-----|----0-----0-----|----0-----0-----|
G|5-----5-----5---|5-----5-----5---|4-----4-----4---|7-----7-----7---|
D|----------------|----------------|----------------|----------------|
A|----------------|----------------|----------------|----------------|
E|----------------|----------------|----------------|----------------|

E|--3-----3-----3-|--8-----8-------|------12--------|----------------|
B|----0-----0-----|----7-----7-----|----9-----------|----------------|
G|5-----5-----5---|8-----8-----8---|--9-------------|----------------|
D|----------------|----------------|9---------------|----------------|
A|----------------|----------------|----------------|----------------|
E|----------------|----------------|----------------|----------------|

both guitars come in:
Guitar 1 (delay - let the notes fade until end of bar)
E|3-3-------------|5-5-------------|5-5-------------|7-7-------------|
B|1-1-------------|3-3-------------|4-4-------------|5-5-------------|
G|----------------|----------------|----------------|----------------|
D|----------------|----------------|----------------|----------------|
A|----------------|----------------|----------------|----------------|
E|----------------|----------------|----------------|----------------|
                                                                        |x2
E|3-3-------------|5-5-------------|2-2-------------|7-7-------------|
B|1-1-------------|4-4-------------|0-0-------------|5-5-------------|
G|----------------|----------------|----------------|----------------|
D|----------------|----------------|----------------|----------------|
A|----------------|----------------|----------------|----------------|
E|----------------|----------------|----------------|----------------|

Guitar 2 (mess around with picking these chords)
E|-7--------------|-8--------------|-8--------------|-7--------------|
B|-5--------------|-8--------------|-7--------------|-8--------------|
G|-5--------------|-7--------------|-8--------------|-9--------------|
D|-5--------------|-7--------------|-7--------------|-9--------------|
A|----------------|----------------|----------------|----------------|
E|----------------|----------------|----------------|----------------|
                                                                       |x2
E|-7--------------|-5--------------|-5--------------|-3--------------|
B|-5--------------|-4--------------|-4--------------|-5--------------|
G|-5--------------|-5--------------|-4--------------|-4--------------|
D|-5--------------|-4--------------|-4--------------|-5--------------|
A|----------------|----------------|----------------|----------------|
E|----------------|----------------|----------------|----------------|

Guitar 1
E|--7-----7-------|--8-----8-------|--8-----8-------|--7-----7-------|
B|--8-----8-8-----|--7-----7-7-----|--7-----7-7-----|--8-----8-8-----|
G|9-----9-----9---|7-----7-----7---|8-----8-----8---|9-----9-----9---|
D|9---------------|7---------------|7-----7---------|9-----9---------|
A|----------------|----------------|----------------|----------------|
E|----------------|----------------|----------------|----------------|

E|--10------------|
B|--9-9-----------|
G|9-----9---------|
D|9---------------|
A|------------5---|
E|----------------|

Guitar 2
E|------------3---|2-----3-----5-7-|8-7-5-3-2--3--5-|3-------2-------|
B|----------------|----------------|----------------|----------------|
G|5---------------|----------------|----------------|----------------|
D|----------------|----------------|----------------|----------------|
A|----------------|----------------|----------------|----------------|
E|----------------|----------------|----------------|----------------|

E|0-0---------2---|
B|----------------|
G|----------------|
D|----------------|
A|----------------|
E|----------------|


little guitar harmony bit
Guitar 1
E|----------------|------------3---|3---5-7-9-------|----------------|
B|----------------|2---0-2-3-------|------------8---|7-----5---------|
G|------------4---|----------------|----------------|--------7-6-4-3-|
D|--------5-------|----------------|----------------|----------------|
A|7---9-----------|----------------|----------------|----------------|
E|----------------|----------------|----------------|----------------|

E|----------------|----------------|
B|----------------|----------------|
G|4---------------|----------------|
D|----------------|----------------|
A|----------------|----------------|
E|----------------|----------------|

Guitar 2
E|3---2---0-------|------0-2-------|--------0-------|------3-2-0-----|
B|------------3---|2---3-------2---|0---2-3-----0---|------------3-2-|
G|----------------|----------------|----------------|3---------------|
D|----------------|----------------|----------------|----------------|
A|----------------|----------------|----------------|----------------|
E|----------------|----------------|----------------|----------------|

E|----------------|----------------|
B|--3-2-3---3-2-3-|--3-2-3---3-2-3-|
G|4-------3-------|2-------1-------|
D|----------------|----------------|
A|----------------|----------------|
E|----------------|----------------|

back to main riff
Guitar 1, Guitar 2 quiet
E|--3-----3-----3-|--3-----3-----3-|--2-----2-----2-|--7-----7-----7-|
B|----0-----0-----|----0-----0-----|----0-----0-----|----0-----0-----|
G|5-----5-----5---|5-----5-----5---|4-----4-----4---|7-----7-----7---|
D|----------------|----------------|----------------|----------------|
A|----------------|----------------|----------------|----------------|
E|----------------|----------------|----------------|----------------|

E|--3-----3-----3-|--3-----3-----3-|--2-----2-----2-|--0-----0-----0-|
B|----0-----0-----|----0-----0-----|----0-----0-----|----6-----6-----|
G|5-----5-----5---|5-----5-----5---|4-----4-----4---|7-----------7---|
D|----------------|----------------|----------------|------6---------|
A|----------------|----------------|----------------|----------------|
E|----------------|----------------|----------------|----------------|

E|--3-----3-----3-|--3-----3-----3-|--2-----2-----2-|--7-----7-----7-|
B|----0-----0-----|----0-----0-----|----0-----0-----|----0-----0-----|
G|5-----5-----5---|5-----5-----5---|4-----4-----4---|7-----7-----7---|
D|----------------|----------------|----------------|----------------|
A|----------------|----------------|----------------|----------------|
E|----------------|----------------|----------------|----------------|

E|--3-----3-----3-|--3-----3-----3-|--2-----2-----2-|------4---------|
B|----0-----0-----|----0-----0-----|----0-----0-----|----5-----5-----|
G|5-----5-----5---|5-----5-----5---|4-----4-----4---|--4---------4---|
D|----------------|----------------|----------------|6-------------5-|
A|----------------|----------------|----------------|----------------|
E|----------------|----------------|----------------|----------------|

both guitars come in:
Guitar 1 (delay - let the notes fade until end of bar)
E|3-3-------------|5-5-------------|5-5-------------|7-7-------------|
B|1-1-------------|3-3-------------|4-4-------------|5-5-------------|
G|----------------|----------------|----------------|----------------|
D|----------------|----------------|----------------|----------------|
A|----------------|----------------|----------------|----------------|
E|----------------|----------------|----------------|----------------|
                                                                        |x4
E|3-3-------------|5-5-------------|2-2-------------|7-7-------------|
B|1-1-------------|4-4-------------|0-0-------------|5-5-------------|
G|----------------|----------------|----------------|----------------|
D|----------------|----------------|----------------|----------------|
A|----------------|----------------|----------------|----------------|
E|----------------|----------------|----------------|----------------|

Guitar 2 (mess around with picking these chords)
E|-7--------------|-8--------------|-8--------------|-7--------------|
B|-5--------------|-8--------------|-7--------------|-8--------------|
G|-5--------------|-7--------------|-8--------------|-9--------------|
D|-5--------------|-7--------------|-7--------------|-9--------------|
A|----------------|----------------|----------------|----------------|
E|----------------|----------------|----------------|----------------|
                                                                       |x4
E|-7--------------|-5--------------|-5--------------|-3--------------|
B|-5--------------|-4--------------|-4--------------|-5--------------|
G|-5--------------|-5--------------|-4--------------|-4--------------|
D|-5--------------|-4--------------|-4--------------|-5--------------|
A|----------------|----------------|----------------|----------------|
E|----------------|----------------|----------------|----------------|

Guitar 1 (delay - let the notes fade until end of bar)
E|3-3-------------|5-5-------------|5-5-------------|7-7-------------|
B|1-1-------------|3-3-------------|4-4-------------|5-5-------------|
G|----------------|----------------|----------------|----------------|
D|----------------|----------------|----------------|----------------|
A|----------------|----------------|----------------|----------------|
E|----------------|----------------|----------------|----------------|
                                                                        |x2
E|3-3-------------|5-5-------------|2-2-------------|7-7-------------|
B|1-1-------------|4-4-------------|0-0-------------|5-5-------------|
G|----------------|----------------|----------------|----------------|
D|----------------|----------------|----------------|----------------|
A|----------------|----------------|----------------|----------------|
E|----------------|----------------|----------------|----------------|

Guitar 2 (play the chords along to the rhythm heard in the song)
E|-7--------------|-8--------------|-8--------------|-7--------------|
B|-5--------------|-8--------------|-7--------------|-8--------------|
G|-5--------------|-7--------------|-8--------------|-9--------------|
D|-5--------------|-7--------------|-7--------------|-9--------------|
A|----------------|----------------|----------------|----------------|
E|----------------|----------------|----------------|----------------|
                                                                       |x2
E|-7--------------|-5--------------|-5--------------|-3--------------|
B|-5--------------|-4--------------|-4--------------|-5--------------|
G|-5--------------|-5--------------|-4--------------|-4--------------|
D|-5--------------|-4--------------|-4--------------|-5--------------|
A|----------------|----------------|----------------|----------------|
E|----------------|----------------|----------------|----------------|

Guitar 1, Guitar 2 quiet
E|--3-----3-----3-|--3-----3-----3-|
B|----0-----0-----|----0-----0-----|
G|5-----5-----5---|5-----5-----5---| 
D|----------------|----------------|
A|----------------|----------------|
E|----------------|----------------|

E|--3-----3-----3-|--3-----3-----3-|--2-----2-----2-|--2-----2-----2-|
B|----0-----0-----|----0-----0-----|----0-----0-----|----0-----0-----|
G|5-----5-----5---|5-----5-----5---|4-----4-----4---|4-----4-----4---|
D|----------------|----------------|----------------|----------------|
A|----------------|----------------|----------------|----------------|
E|----------------|----------------|----------------|----------------|

E|--3-----3-----3-|--3-----3-----3-|--2-----2-----2-|--5-----5-----5-|
B|----0-----0-----|----0-----0-----|----0-----0-----|----0-----0-----|
G|5-----5-----5---|5-----5-----5---|4-----4-----4---|7-----7-----7---|
D|----------------|----------------|----------------|----------------|
A|----------------|----------------|----------------|----------------|
E|----------------|----------------|----------------|----------------|

E|--3-----3-----3-|--3-----3-----3-|--2-----2-----2-|--2-----2-----2-|
B|----0-----0-----|----0-----0-----|----0-----0-----|----0-----0-----|
G|5-----5-----5---|5-----5-----5---|4-----4-----4---|4-----4-----4---|
D|----------------|----------------|----------------|----------------|
A|----------------|----------------|----------------|----------------|
E|----------------|----------------|----------------|----------------|

E|--3-----3-----3-|--3-----3-----3-|--2-----2----<7>|----------------|
B|----0-----0-----|----0-----0-----|----0-----0-0<7>|----------------|
G|5-----5-----5---|5-----5-----5---|4-----4------<7>|----------------|
D|----------------|----------------|-------------<7>|----------------|
A|----------------|----------------|----------------|----------------|
E|----------------|----------------|----------------|----------------|





Comments


Popular Malice Mizer tabs & chords
Apres Midi Bass Tabs
Brise Bass Tabs
Gardenia Bass Tabs
Bois De Merveilles Chords
Gekka No Yasoukyoku Chords
Mizerable Chords
Au Revoir Tabs
Baroque Tabs
Bel Air Tabs
Brise Tabs


Song lyrics



↑ Back to top | Tablatures and chords are parodies/interpretations of the original songs. You may use it for private study, scholarship, research or language learning purposes only
© 2014 AZChords.com Contact us | Privacy policy | DMCA | Add/correct tabs | Request tabs | Top 50 tabs