» » »

Malice Mizer, Baroque Tabs (ver.2)

Artists:  A B C D E F G H I J K L M N O P Q R S T U V W X Y Z # 

Baroque Tabs (ver.2)

Malice Mizer Tabs
Rating:
0/5 (0 votes)
Baroque lessons Tabs too difficult? Try these video lessons and learn fast
                -------------------------------------------------------------------------------
			     BAROQUE - Malice Mizer
-------------------------------------------------------------------------------

0:38
			  Kozi
  A7sus2		    A7sus2/5-

e---3-------3-------3-------3-------2--------2-------2-------2-----|
B-----0-------0-------0-------0-------0--------0-------0-------0---|
G-------2-------2-------2-------2-------2--------2-------2-------2-|
D-2-------2-------2-------2-------1--------1-------1-------1-------|
A------------------------------------------------------------------|
E------------------------------------------------------------------| X3

			  Kozi
  A7sus2		    A7sus2/5-

e---3-------3-------3-------3-------2--------2-------2-------2---------|
B-----0-------0-------0-------0-------0--------0-------0-------0-------|
G-------2-------2-------2-------2-------2--------2-------2-------2-----|
D-2-------2-------2-------2-------1--------1-------1-------1-------1---|
A----------------------------------------------------------------------|
E----------------------------------------------------------------------|

1:01
	           Kozi
G#5   A#/D#  F5		  A5 A5 A#5
e-4---------|----------------|------------|
B-4---------|----------------|------------|
G-5----7--7-|-10-------------|--2--2-3----|
D-6----8--8-|-9--------------|--2--2-3----|
A-6----6--6-|-8--------------|--0--0-1----|
E-4---------|----------------|------------|
|		   Mana			  |
e-----------|----------------|------------|
B-----------|----------------|------------|
G-----------|--10-----10-----|------------|
D-----------|-----9------9---|------------|
A-----------|-------8------8-|------------|
E-----------|----------------|------------|

1:05
		   Kozi
e-----------|-----------|----------|-----------|
B------8-9~-|------9-8~-|-----8-6~-|-----6-4-3-|
G----8------|-7---------|-5--------|---4-------|
D-10--------|---8-------|---6------|-5---------|
A-----------|-----------|----------|-----------|
E-----------|-----------|----------|-----------| X2

1:16
e-----------|-----/8----|8p6------8|--7-8-10-11|
B-4---/6----|/8---------|--h9-8 6--|-----------|
G-----------|-----------|----------|-----------|
D-----------|-----------|----------|-----------|
A-----------|-----------|----------|-----------|
E-----------|-----------|----------|-----------|

verse

any ideas, thanks!

| /  slide up
| \  slide down
| h  hammer-on
| p  pull-off
| ~  vibrato
| +  harmonic
| x  Mute note
===============================================================================
            
Submit corrections

comments powered by Disqus
↑ Back to top | Malice Mizer Tabs for Baroque. Lyrics for acoustic guitar and electric guitar. Tablatures and chords are parodies/interpretations of the original songs. You may use it for private study, scholarship, research or language learning purposes only