>
 >
El Rincon De Los Sentidos

El Rincon De Los Sentidos Guitar Tabs

Mago De Oz - El Rincon De Los Sentidos chords, tabs, tablatures, lyrics

Guitar lessons | Add/correct | Request | Top 50 tabs Artists:  A B C D E F G H I J K L M N O P Q R S T U V W X Y Z 0-9

El Rincon De Los Sentidos Guitar Tabs – Mago De Oz

CD, Sheet music, Poster

Do you like El Rincon De Los Sentidos? Share with your friends now
Tabs
INTRO:
e|---------------------------------------|
B|---------------------------------------|
G|---------------------------------------|
D|---------------------------------------|
A|--7-7-7-7-7-7-5-7-----------------2----|
E|------------------7-5-5-5-5-3-5-3---3—-|

E|--------------------|----------------------|
B|--------------------|----------------------|
G|--------------------|----------------------|
D|-------------7-9----|--5/4-—5/4—-5/4-------|
A|-7-7-7-7-7-7-----7--|--3/2—-3/2—-3/2-------|
E|--------------------|----------------------|
                      *______________________*
                   (esto no suena a la 2da. Vez)
Verso 1:
E5                        D5
Hace algún tiempo que yo naufragué
 A5                  B5     G5
entre la playa de su juventud
  E5                 D5
a la deriva se me hundió un amor
     G5       E5 G5 A5
y mi vida se encalló

E5                    D5
Hace ya tiempo que emborraché
  A5                    B5     G5
todos los versos que un día canté
 E5                     D5
con el aliento que da una mujer
G5         E5 G5 A5
que ya no volverá

Pre-Coro:
  C5        D5          E5
Hice inventario de lo que perdí   Ojo:|--------------|
  C5       D5            B5           |--------------|
Eché las cuentas de lo que invertí    |-------9------|
  C5       D5         E5              |-------9------|=E5
años de lucha, noches sin dormir      |-------7------|
C5           D5           B5          |-------0------|
y ahora soy músico y te tengo a ti

Coro:
         G5            E5
Quiero cantar quiero gritar
        D5          B5
quiero vivir en libertad
        G5            E5
quiero morir cerca de ti
        C5            D5    E5
quiero encontrar lo que perdí

Interlude:

Esto se acompaña así
G5, E5, D5, B5, G5, E5, C5, D5, E5
e|------------------------------------------|
B|---12-10-8----12-10-8---12-10-8-7-8-7-8---|
G|-----------11---------9-----------------9-|
D|------------------------------------------|
A|------------------------------------------|
E|------------------------------------------|

-----------------------------------------------|
--12-10-8----12-10-8---12-10-12/13-12-10-7-8---|
----------11---------9-------------------------|
-----------------------------------------------|
-----------------------------------------------|
-----------------------------------------------|

Luego:
e|-------------------------------------------------------|
B|-------------------------------------------------------|
G|-------------------------------------------------------|
D|--0h2---0h2--------------------------0h2---0h2---5-4---|
A|--0h2---0h2---x-x-x-x-x-x-x-x-x-x----0h2---0h2---5-4---|
E|--------------x-x-x-x-x-x-x-x-x-x----------------3-2---|


Verso 2:
 E5                   D5
Por las esquinas de alguna canción
 A5                    B5      G5
vende su alma a veces la ilusión
 E5                D5
pero jamás la mía venderé
G5       E5 A5 G5
rockero moriré


Pre-coro:
 C5          D5              E5
Abrigo derrotas y les doy calor
 C5        D5               B5
con una rima que cosí a mi voz
C5         D5              E5
maquillo nostalgias y les doy color
C5         D5          B5
con pentagramas que pinté


Coro:
         G5            E5
Quiero cantar quiero gritar
        D5          B5
quiero vivir en libertad
        G5            E5
quiero morir cerca de ti
        C5            D5    E5
quiero encontrar lo que perdí


El solo se acompaña asi:

E5, C5, B5, A5, E5, G5, E5, C5, D5, E5

Solo:
e|-------------------|----------------------15b17r15---15p12----------12-|
B|-------------------|-15b17r15--15-12-15---------------------15b17------|
G|--14b16r14--12-----|---------------------------------------------------|
D|---------------14~~|---------------------------------------------------|
A|-------------------|---------------------------------------------------|
E|-------------------|---------------------------------------------------|

e|-12-10-8/7-10-8-7----7-8-10-8-7----8-7------7-----------------------|
B|------------------10------------10-----10-8--10-8-7--10-8-7---------|
G|------------------------------------------------------------7-9~~\--|
D|--------------------------------------------------------------------|
A|--------------------------------------------------------------------|
E|--------------------------------------------------------------------|

DESPUES EN ORDEN DESCENDENTE CON EL SOLO DE FLAUTA Y VIOLIN:

E5 D5 C5 B5 A5 G5 E5 F#5 E5  X2

Coro final:
         G#5          F5
Quiero cantar quiero gritar
        D#5          C5
quiero vivir en libertad
        G#5          F5
quiero morir cerca de ti
        C#5            D#5   F5
quiero encontrar lo que perdí


         G#5            F5
Quiero cantar quiero gritar
        D#5          C5
para que entiendas que yo fui
        G#5            F5
solo un juglar que se escondió
        C#5       D#5
entre canciones y una voz

Luego haces esto hasta el final. Nota(en el solo final los haces mas rapido)

F5 D#5 C#5 C5 A#5 G#5 F5 G5 F5

este es el solo del final:

e|-13-13-13-13-16-16-16-16---------------------------|
B|-------------------------16-16-13-13---------------|
G|--------------------------------------13-13-13-13--|
D|---------------------------------------------------|

E| -------------13-13-13-13----------------------------|
B|-14-14-14-14--------------13-13----------------------|
G|-------------------------------13-13-----------------|
D|-------------------------------------15-15-15-15-----|

E|---------------------------------------------|
B|-------------13-13-13-13---------------------|
G|-15-15-15-15--------------13-13--------------|
D|--------------------------------17-17-15-15--|

E|-----------------------|
B|-----------------------|
G|-12-13-15-12-----------|
D|--------------13-15----|

Notación:

~ : vibrar la nota

b (bend) : se toca una nota y se levanta la cuerda para producir la nota
           que sigue  ej: 17b19 - se toca 17, se levanta la cuerda 2
           notas y se produce 19

r (release) : después de aplicar un bend a una nota, se regresa a la nota
             original ej: 17b19r17 - se toca 17, se levanta la cuerda
             2 notas y se baja la cuerda para regresar a 17

/  : deslizar de un traste a otro

\ : Retroceder de un traste a otro





Comments


Popular Mago De Oz tabs & chords
Ancha Es Castilla Metal Bass Tabs
La Rosa De Los Vientos Chords
Ancha Es Castilla Intro Tabs
Aquelarre Tabs
El Angel Caido Tabs
La Posada De Los Muertos Tabs
La Santa Compaa 1 Tabs
Molinos De Viento (Intro) Tabs
Resacoxis En Hispania Tabs
Tenucare Contral Bide Tabs


Song lyrics



↑ Back to top | Tablatures and chords are parodies/interpretations of the original songs. You may use it for private study, scholarship, research or language learning purposes only
© 2014 AZChords.com Contact us | Privacy policy | DMCA | Add/correct tabs | Request tabs | Top 50 tabs