» » »

Mago De Oz, El Que Quiera Entender Que Entienda Tabs (ver.1)

Artists:  A B C D E F G H I J K L M N O P Q R S T U V W X Y Z # 

El Que Quiera Entender Que Entienda Tabs (ver.1)

Mago De Oz Tabs
 Rating:
4/5 (4 votes)
El Que Quiera Entender Que Entienda lessons Tabs too difficult? Try these video lessons and learn fast
                Mago de oz
El que quiera entender que entienda




INTRO BARROCA: x3 

e|---------------------------------------------------|----------------| 
B|-------13--12--10h12p10h12p10h12p10---|---8---6---5---| 
G|---12--------------------------------------------|----------------| x2 
D|--------------------------------------------------|----------------| 
A|--------------------------------------------------|----------------| 
E|--------------------------------------------------|----------------| 


INTRO ELÉCTRICA + RITMO DEL VERSO: x3 
e|-------------------------------|---------------------| 
B|-------13--12--10--(10)^--|---8^---6^---5^---| 
G|---12------------------------|---------------------| 
D|------------------------------|---------------------| 
A|------------------------------|---------------------| 
E|------------------------------|---------------------| 


e|-------------------------------|---------------------------------------------------------| 
B|-------13--12--10--(10)^--|-------13--15--15/17^--15^--13^--12^------------| 
G|---12------------------------|---12---------------------------------------------------| 
D|------------------------------|---------------------------------------------------------| 
A|------------------------------|---------------------------------------------------------| 
E|------------------------------|---------------------------------------------------------| 



VERSO  x2: 
e|-----------------------------|--------------------------------------------------| 
B|----------------------------|---------------------------------------------------| 
G|---------5-----5-----------|---------5-----5-----7---------------------------| 
D|---7-----5-----5-----5----|---7-----5-----5-----7---------------------------| 
A|---7-----3-----3-----5----|---7-----3-----3-----5---------------------------| 
E|---5------------------3----|---5-----------------------------------------------| 
       

Cuánto ha de esperar para al fin poder hallar la otra mitad de mí que me acompañe a vivir. Nadé tiempo en un mar de apariencia, y ahogué el amor. No sé puede ocultar el perfume de una flor. PUENTE : 
e|----------------------------------------------------------------------------------| 
B|----------------------------------------------------------------------------------| 
G|---7---9--10--------------------------------------------------------------------| 
D|---7---9--10-----10-----12-----10---9---7----------------------------------| 
A|---5---7---8-----10-----12-----10---9---7----------------------------------| 
E|--------------------8-----10------8----7---5----------------------------------| 




e|--------------------------------------------------------------------------------| 
B|--------------------------------------------------------------------------------| 
G|---7---9--10------------------------------------------------------------------| 
D|---7---9--10-----10-----12-----14------------------------------------------| 
A|---5---7---8-----10-----12-----14-------------------------------------------| 
E|--------------------8-----10-----12-------------------------------------------| 
 
Cuánto me cuesta sobrevivir, cuánto sonreír sin poder quitarme el antifaz que me disfraza de normal. 
 e|----------------------------|--------------------------------------------------| 
B|----------------------------|--------------------------------------------------| 
G|---------5-----5-----------|---------5-----5-----7--------------------------| 
D|---7-----5-----5-----5----|---7-----5-----5-----7--------------------------|
A|---7-----3-----3-----5----|---7-----3-----3-----5--------------------------| 
E|---5------------------3----|---5----------------------------------------------| 


Y volveré a buscarte allí hasta donde estés, tan sólo quiero amarte y poder tener alguien en que apoyarme alguien en quien volcar todo el amor que cercenó el qué dirán... 

INTRO 

TRANSICIÓN : 
e|------------------------------------------------------------------------------------| 
B|-----------------------------------------------------------------------------------| 
G|-------------------5---5--------5---5--------------------------------------------| 
D|-------7---7------5---5--------5---5----------5---5----------------------------| 
A|-------7---7------3-------------3--------------5---5----------------------------| 
E|-------5-----------------------------------------3--------------------------------| 


e|-----------------------------------------------------------------------------------| 
B|----------------------------------------------------------------------------------| 
G|--------------------5---5--------5---5--------7---7----------------------------| 
D|-------7---7-------5---5--------5---5--------7---7----------------------------| 
A|-------7---7-------3------------3-------------5--------------------------------| 
E|-------5--------------------------------------------------------------------------| 


No más miedo a entregar mis labios sin antes mirar, no más miedo a acariciar nuestros cuerpos y soñar. 

VERSO: 
A la mierda con el armario y el diván y si hay que luchar, luchar es educar. 

PUENTE: Que en asuntos del corazón no hay regla de dos. Que somos distintos, somos iguales no más guetos, alza la voz. ESTRIBILLO [02:58] Y volveré a buscarte allí hasta donde estés... 

e|---------------------------------------------------|-----------------------------------------------------------| 
B|--------------------------------------------------|------------------------------------------------------------| 
G|-------------5-----------5-----------------------|-------------5---------5----------7-----------------------| 
D|---7--------5-----------5---------5-------------|---7--------5---------5----------7-----------------------| 
A|---7--------3-xxx-----3-xxx----5-------------|---7--------3-xxx----3-xxx----5-----------------------| 
E|---5-xxx--------------------------3-xxx-------|---5-xxx--------------------------------------------------| 


 Y cuando llegue el final el otoño de nuestro amor yo te esperaré. Mientras, vive y lucha por tener derecho a elegir con qué cabeza tu almohada compartir. Orgulloso de ser quien eres y no como deberías ser. 

PUENTE: 
Cuanto me cuesta sobrevivir cuanto sonreír sin poder quitarme el antifaz que me disfraza de normal. 

ESTRIBILLO 
Y volveré a buscarte Allí hasta donde estés... RITMO FINAL: 
e|-------------------------------------| 
B|-------------------------------------| 
G|-------------------5-----------------| 
D|---7-------3-------5-------5---------| 
A|---7-------3-x x x-3-x x x-5---------| 
E|---5-x x x-1---------------3-x x x---|
            
Submit corrections

comments powered by Disqus
↑ Back to top | Mago De Oz Tabs for El Que Quiera Entender Que Entienda. Lyrics for acoustic guitar and electric guitar. Tablatures and chords are parodies/interpretations of the original songs. You may use it for private study, scholarship, research or language learning purposes only