» » »

El Lago Tabs (ver.1)

Artists:  A B C D E F G H I J K L M N O P Q R S T U V W X Y Z # 

El Lago Tabs (ver.1)

Mago De Oz
Rating:
5/5 (1 vote)

Hard to play? Try these video lessons and learn fast.
                MAGO DE OZ

EL LAGO
*****************************************************************************

2 veces
|-----------------------|-------|
|-----------------------|-------|
|-----------------------|--2-2--|
|--3----X-X-5----X-X-7--|--2-2--|
|--3----X-X-5----X-X-7--|--0-0--|
|--1----X-X-3----X-X-5--|-------|

De nuevo solos tu y yo un lago y una canción
|-----------------------------|-----------------------|
|-----------------------------|-----------------------|
|-----------------------------|-----------------------|
|--3-3----X-X-5-5----X-X-7-7--|--3-3----X-5----X-7-7--|
|--3-3----X-X-5-5----X-X-7-7--|--3-3----X-5----X-7-7--|
|--1-1----X-X-3-3----X-X-5-5--|--1-1----X-3----X-5-5--|


echo de menos oir tu voz una estrella te eclipsó.
|-----------------------------|-----------------------------|
|-----------------------------|-----------------------------|
|-----------------------------|-----------------------------|
|--3-3----X-X-5-5----X-X-7-7--|--3-3----X-X-5-5----X-X-7-7--|
|--3-3----X-X-5-5----X-X-7-7--|--3-3----X-X-5-5----X-X-7-7--|
|--1-1----X-X-3-3----X-X-5-5--|--1-1----X-X-3-3----X-X-5-5--|


Los momentos que no velver n a sentir tu piel
|----------------------------------------------|
|----------------------------------------------|
|--5-------------7-----------------------------|
|--5------5------7------7----------------------|
|--3------5------5------7-----7-----7-----7-9--|
|---------3-------------5-5-5-5-5-5-5-5-5-5-7--|


en mis brazos yo te tuve ayer, hay tantas cosas que te quiero decir,
acércate.
|--------------------------------------|---------|
|--------------------------------------|---------|
|--5-------------7---------------------|--2-2-2--|
|--5------5------7------7--------------|--2-2-2--|
|--3------5------5------7--------------|--0-0-0--|
|---------3-------------5--------------|---------|


A veces siento el despertar con susurro tu calor
|---------------------------|-----------------------------|
|---------------------------|-----------------------------|
|---------------------------|-----------------------------|
|--3-3----X-X-5-5----X-7-7--|--3-3----X-X-5-5----X-X-7-7--|
|--3-3----X-X-5-5----X-7-7--|--3-3----X-X-5-5----X-X-7-7--|
|--1-1----X-X-3-3----X-5-5--|--1-1----X-X-3-3----X-X-5-5--|


ella no deja de pensar
que un día te encontrar .
2 veces
|---------------------------------------------------------------------|
|---------------------------------------------------------------------|
|---------------------------------------------------------------------|
|---------------------------------------------------------------------|
|----------------------------------5---------------5------------------|
|--1-1-1-1-1-1-1-1-3-3-3-3-3-3-3-3-35-5-5-5-5-5-5-35-5-5-5-5-3-3------|


C¢geme no me dejes marchar, quiero sentarme a tus pies
|----------------------------------------------|
|----------------------------------------------|
|--5-------------7-----------------------------|
|--5------5------7------7----------------------|
|--3------5------5------7-----7-----7-----7-9--|
|---------3-------------5-5-5-5-5-5-5-5-5-5-7--|


en mis brazos yo te tuve ayer, hay tantas cosas que te quiero decir,
dime por que.
|------------------------------|
|------------------------------|
|--5-------------7-------------|
|--5------5------7------7------|
|--3------5------5------7------|
|---------3-------------5------|


Solo tu, tu y yo, (empieza a cantar a la tercera)
una guitarra, el lago y una canción.
Solo tu, tu y yo,
5 veces
|-------------------------------------|
|-------------------------------------|
|------------------------------75-----|
|--7-7-7----75--3-3-----5-----75------|
|--7-7-7----75--3-3-----5-----53------|
|--5-5-5----53--1-1-1-1-3-3-3---------|


ahora ya te puedo decir adiós.
|----------------------------------------------------|
|----------------------------------------------------|
|----------------------------------------------------|
|--7-7-7----75--3------------------------------------|
|--7-7-7----75--3------------------------------------|
|--5-5-5----53--1-1-1-1-1-1-1-1-3333333333333333-----|


Mientras el solo la otra guitarra esta tocando esto

9 veces
|-----------------------------------------------|
|-----------------------------------------------|
|----------------------------------------7-5----|
|--57-------------57---------5-3-3--5--7-5------|
|--57-------------57---------5-3-3--5--5-3------|
|--35-5-5-5-5-5-5-35-5-5-5-5-3-1-1--3-----------|


4 veces
|---------------------------------------------------------------|
|---------------------------------------------------------------|
|----------------------------------------------------------7-5--|
|----------------------------------------------------------7-5--|
|----------------------------------------------------------5-3--|
|--5-5-5-5-5-5-5-5-3-3-3-3-3-3-3-3-1-1-1-1-1-1-1-1-3-3-3-3------|

|---------------------------|
|---------------------------|
|--------------------7-5----|
|--7---5----3---5--7-5------|
|--7---5----3---5--5-3------|
|--5---3----1---3-----------|

2 veces
|---------------------------------------------------------------|
|---------------------------------------------------------------|
|----------------------------------------------------------7-5--|
|----------------------------------------------------------7-5--|
|----------------------------------------------------------5-3--|
|--5-5-5-5-5-5-5-5-3-3-3-3-3-3-3-3-1-1-1-1-1-1-1-1-3-3-3-3------|


De nuevo solos tu y yo
un lago y una canción
echo de menos oir tu voz
una estrella te eclipsó.
4 veces
|---------------------------------------|
|---------------------------------------|
|--------------------------------7-5----|
|--7---------5---------3-3---5---7-5----|
|--7---------5---------3-3---5---5-3----|
|--5-5-5-35-3-3-3-13-1-1---3------------|


Te eclipsó.
2 veces
|---------------------------------------|
|---------------------------------------|
|--------------------------------9-7----|
|--9-9-9---9-9---------5-5---7---9-7----|
|--9-9-9---9-9---------5-5---7---7-5----|
|--7-7-7---7-7-7575-3-3---5-------------|


Te eclipsó.
|-----------------|
|-----------------|
|------------9-7--|
|--5-5---7---9-7--|
|--5-5---7---7-5--|
|--3-3---5--------|


Te eclipsó.
|---------------------------------------|
|---------------------------------------|
|--------------------------------9-7----|
|--9-9-9---9-9---------5-5---7---9-7----|
|--9-9-9---9-9---------5-5---7---7-5----|
|--7-7-7---7-7-7575-3-3---5-------------|


2 veces
|--------------------------------------------|
|--------------------------------------------|
|----------------------------------------7-5-|
|----------------------------------------7-5-|
|--9-----9-----9-----9-7-5-----5-----7---9-7-|
|--7-7-7-7-7-7-7-7-7-7-5-3-3-3-3-3-3-5-------|


|-----------|
|-----------|
|-----------|
|--9-9-7-9--|
|--7-7-5-7--|
|-----------|
            
Hard to play? Try these video lessons and learn fast. | Correct




comments powered by Disqus
↑ Back to top | Tablatures and chords are parodies/interpretations of the original songs. You may use it for private study, scholarship, research or language learning purposes only