>
 >
Atlantia

Atlantia Guitar Tabs

Mago De Oz - Atlantia chords, tabs, tablatures, lyrics

Guitar lessons | Add/correct | Request | Top 50 tabs Artists:  A B C D E F G H I J K L M N O P Q R S T U V W X Y Z 0-9

Atlantia Guitar Tabs – Mago De Oz

CD, Sheet music, Poster

Do you like Atlantia? Share with your friends now
Tabs
Hola, pues esta es mi primera transcripcion y esta cancion esta
muy padre por sus
cambios de ritmo x) espero les sirva



Memento Homo, quiapulvis es,
et in pulveremreverertis.”



         Dm              Am            F       C                Dm
E]--5--------------------5-5---6-5-5-6-8-8-6-5--------------5-6-5-|
B]---8-6-------6-----5-6-----8-----------------8-6-5-6--8-8-------|
G]-------7-5-7---7-7----------------------------------------------|
D]----------------------------------------------------------------|
A]----------------------------------------------------------------|
E]----------------------------------------------------------------|


          Dm              Am            F      C                Dm
E]--5---------------------5-5---6-5-5-6-8-8-6-5-------------------|
B]----8-6-------6-----5-6-----8-----------------8-6-5-6-8-8-6-5---|
G]--------7-5-7---7-7-------------------------------------------8-|
D]----------------------------------------------------------------|
A]----------------------------------------------------------------|
E]----------------------------------------------------------------|


               Dm      Am    Dm
Si he de naufragar en mi tormenta
                  Am    Dm
Déjame nadar dentro de ti
                    Am      Dm
Todo lo que fui se puso en venta
                      Am      Dm
Todo lo que amé, lo que aprendí.

             F      C    Dm
Me quiero morir en tu mirada
              F     C        Dm
Me quiero dormir en el que fui
             F    C          Dm
Nos atrincharemos en tu almohada
                   C           Dm
Siempre que el destino tenga bien.


            Dm Am   Dm          Dm Am   Dm        F   C   Dm
E]--5-------------------5-----------------5---------5---8-10------|
B]----8-6-5---5---5-5-----8-6-5---5---5-----8-6-5-6---8------10---|
G]----------7---5-----7---------7---5---7-------------------------|
D]----------------------------------------------------------------|
A]----------------------------------------------------------------|
E]----------------------------------------------------------------|



            F   C   Dm
E]--5-------------------------------------------------------------|
B]----8-6-5---5---5-----------------------------------------------|
G]----------7---5---7---------------------------------------------|
D]----------------------------------------------------------------|
A]----------------------------------------------------------------|
E]----------------------------------------------------------------|



             F    C     Dm
Hoy la vida baja la persiana
              F     C      Dm
Se venden sonrisas de ocasión
               F     C     Dm
Cerrará el mercado "del mañana"
              F        C    Dm
"cese del planeta por defunción".

          F        Dm
Llora el rio, soledad
      C                 Dm
Se desangra de agua el mar
          F              Dm
Tose el cielo truenos y luz
      C        Dm
Estornuda un alud.


Mientras se hoye el violin.-
F - Dm - C - Dm
F - Dm - C - Dm


Esto se toca cuando empieza el funk (Sin Distorcion)
Dm5 - Dm5 - F - C5 - C5


Dm5
En la fe que Cristo nos ha de salvar
F               C5
En la fe de que él nos ama
                     Dm5
Nos tenemos que agarrar
No al anticonceptivo,
Es mejor el SIDA que un condón
     F              C5
Ser gay es una enfermedad,
                  Dm5
Violar a un crio no.


Dios es amor, Dios es libertad
 F      C5                   Dm5
¡Oh, Jesús! tú nos traes la paz
Dios es la luz, tolerancia y fe
F        C5                   Dm5
Es tu colega, un amigo de verdad.


Dios derribó la Torre
De Babel por no creer
    F               C5
Pidió a Abraham sacrificar a su hijo
                 Dm5
En prueba de su fe
Inundó la Tierra, el diluvio de Dios
    F           C5
Mandó a su hijo a morir
                       Dm5
Y el infierno se inventó


Dios es amor, Dios es libertad
 F      C5                   Dm5
¡Oh, Jesús! tú nos traes la paz
Dios es la luz, tolerancia y fe
F        C5                   Dm5
Es tu colega, un amigo de verdad.


Bienaventurados los pobres
Bienaventurado el que es GAY
F          C5
Bienaventurado el que paga
                           Dm5
Bienaventurado el que cree.
Bienaventurado el parado
Y el que no llega a fin de mes
F          C5
Bienaventurada la esposa...


Bienaventurados los pobres
Bienaventurado el que es GAY
Bienaventurado el que paga
Bienaventurado el que cree.
Bienaventurado el parado
Y el que no llega a fin de mes
Bienaventurada la esposa
F
Que soporta los golpes de un cerdo
Que recibe mil puñaladas
                           Dm5
Con una sonrisa y una oración...


Dm                   Am    Dm
Silba una canción la despedida
              Am    Dm
Recita poemas el adiós
                  Am   Dm
Se maquilla la melancolía
                        Am   Dm
Con nostalgia y polvos de dolor.

              F     C      Dm
Más allá del sol y las estrellas
                F     C      Dm
O entre las esquinas de tu amor
                 F    C     Dm
Puede que encontremos otra tierra
              C           Dm
Pues la profecía empieza HOY.


Esto se puede tocar con distorcion


    Dm5   Dm5   Dm5           Dm5   Dm5   Dm5   D#m5
E]----------------------------------------------------------------|
B]----------------------------------------------------------------|
G]--7-----7-----7-------------7-----7-----7-----8-----------------|
D]--7-----7-----7-------------7-----7-----7-----8-----------------|
A]--5-----5-----5----5-7-8----5-----5-----5-----6-----------------|
E]----------------------------------------------------------------|
                                         ¡¡¡GAIA!!!



Mientras entran el violin y la flauta
Dm5 - Dm5 - Dm5 - Dm5
F5 - C5 - Dm5
F5 - C5 - Dm5
Dm5 - Dm5


Dm5
El infierno se enfrió
C5-Dm5              Dm5-E5
Y el cielo se cubrió
F5        G5
De una telaraña gris
              Dm5
De nubes y dolor.


Dm5
Vomitaba un volcán
C5-Dm5            Dm5-E5
El bosque se quemó
F5           G5
Desangrábase una flor
               Dm5
Herida por el sol.


      F5  C5    Dm5
Y crucificarse decidió
    F5    C5    D5
Al ver aquel horror.


Dm5C5 Dm5
Oh Oh oh oh oh
F  C  Dm
oh oh oh oh oh

                F    C5    Dm5
E]------------------------------|
B]------------------------------|
G]------------------------------|
D]--------------7--5------------|
A]-----5--7--8--------8--7--5---|
E]------------------------------|


          F        Dm5
Llora el rio, soledad
      F       C5        Dm5
Se desangra de agua el mar
          F              Dm5
Tose el cielo, truenos y luz
     F       C5  Dm5
Dibujando oscuridad.


          Dm5
Quiero morir en tu mirar
          Am5         Dm5
Quiero morir y despertar
     F             C5
Y tenerte junto a mí, amor
                   Dm5
Sin ti no puedo estar.


Quiero poder recuperar
            Am5          Dm5
Todos los sueños que vendí
       F            C5
Por puñados de progreso amor
               Dm5
Perdí mi libertad.


Mientras se hoye el violin.-
Dm5 - Dm5
F5 - C5 - Dm5
F5 - C5 - Dm5
Dm5


Mientras se hoye el piano
Dm5 - D#m5
Dm5 - D#m5
D-|m5 - Dm5 - Dm5 - Dm5
C-|5 - Dm5 - Dm5 - Dm5
Dm5 - E5 - F5 - F5 - C5 - C5 - D5 - D5 - E5 - E5 x2


Este solo es la primera vuelta


E]--------------13-13-12-13-17-20-15-15-17-13---------------------|
B]--15-15-13-15-------------------------------15------------------|
G]----------------------------------------------------------------|
D]----------------------------------------------------------------|
A]----------------------------------------------------------------|
E]----------------------------------------------------------------|


Esta es la segunda vuelta

E]--------------13-13-12-13-13-15-17-20-15-15-17-13-------12-13-17-|
B]--15-15-13-15-------------------------------------15-15----------|
G]-----------------------------------------------------------------|
D]-----------------------------------------------------------------|
A]-----------------------------------------------------------------|
E]-----------------------------------------------------------------|



E]--15-13-12-------12-13-12-13-15-13-15-17------------------------|
B]-----------15-15------------------------------------------------|
G]----------------------------------------------------------------|
D]----------------------------------------------------------------|
A]----------------------------------------------------------------|
E]----------------------------------------------------------------|


Y esta es la segunda voz

E]-----------------------------12-13-17-12-12-13----------------13-|
B]--------------15-15-13-15-15-------------------15-------13-15----|
G]--14-14-12-14-------------------------------------14-14----------|
D]-----------------------------------------------------------------|
A]-----------------------------------------------------------------|
E]-----------------------------------------------------------------|



E]-12-------------------------12----12----------------------------|
B]----15-13-------13-15-13-15----15-------------------------------|
G]----------14-14-------------------------------------------------|
D]----------------------------------------------------------------|
A]----------------------------------------------------------------|
E]----------------------------------------------------------------|



Dm5 - Dm5 - Dm5



E]----------------------|
B]----------------------|
G]----------------------|
D]----------------------|
A]--8-8-7-7-5---7---5---|
E]------------8---8-----|


Dm5 - Dm5 - Dm5


E]----------------------|
B]----------------------|
G]----------------------|
D]----------5-----------|
A]--8-8-7-8---8-7---5---|
E]----------------8-----|


Dm5
El dorado decidió
Ir al monte de piedad
A vender o empeñar
Todo el oro antes de huir.


La pirámide del Sol
Se untó crema solar
F          C5
Para proteger su piel
               Dm5
Del fuego nuclear.


   F5    C5     Dm5
El árbol de la noche Triste
    F5   C5  Dm5
No deja de reír


Dm5C5 Dm5
Oh Oh oh oh oh
F  C  Dm
oh oh oh oh oh


          F                Dm5
Grita el viento, ¿Dónde estás?
       F        C5          Dm5
A la playa que se bebió el mar
              F       Dm5
Se abrió el Suelo, ataúd
          F     C5     Dm5
Construcciones fosa común


          Dm5
Quiero morir en tu mirar
          Am5         Dm5
Quiero morir y despertar
     F             C5
Y tenerte junto a mí, amor
                   Dm
Sin ti no puedo estar.


Quiero poder recuperar
            Am5          Dm5
Todos los sueños que vendí
       F            C5
Por puñados de progreso amor
               Dm5
Perdí mi libertad.


          Em5
Quiero morir en tu mirar
          Bm5         Em5
Quiero morir y despertar
     G             D5
Y tenerte junto a mí, amor
                   Em5
Sin ti no puedo estar


Quiero poder recuperar
            Bm5          Em5
Todos los sueños que vendí
       G            D5
Por puñados de progreso amor
               Em5
Perdí mi libertad.



Em5 - F - F - Em5


E]----------------------------------------------|
B]----------------------------------------------|
G]----------------------------------------------|
D]--------------0-2-3-2-0-2---3*--      * <-----|Armonico
A]--------0-2-3-------------2-------------------|
E]--0-1-3---------------------------------------|



Em5 - F5 - F5 - Em5 - D5


Mientras se hoye el violin y la flauta.-
Em5 - Bm5 - G5 - D5 - D5 - Em5
Em5 - Bm5 - G5 - D5 - D5 - Em5
Em5 - D5 - Em5
G5 - D5 - Em5
G5 - D5 - Em5
G5 - D5


E]---------------------------------------------------------------|
B]---------------------------------------------------------------|
G]---7---9-9-9-----7---9-9-9-----7---9-9-9-----------------------|
D]---7---9-9-9-----7---9-9-9-----7---9-9-9-----------------------|
A]---5---7-7-7-----5---7-7-7-----5---7-7-7-----------------------|
E]---------------------------------------------------------------|


E]---------------------------------------------------------------|
B]---------------------------------------------------------------|
G]---7---9-9-9-----7---9-9-9-----12-12-7-9-----------------------|
D]---7---9-9-9-----7---9-9-9-----12-12-7-9-----------------------|
A]---5---7-7-7-----5---7-7-7-----10-10-5-7-----------------------|
E]---------------------------------------------------------------|



E]---------------------------------------------------------------|
B]---------------------------------------------------------------|
G]---------------------------------------------------------------|
D]---222222222222---22222222222---5-0-------------222222222222---|
A]---222222222222---22222222222------3-2-0--------222222222222---|
E]---000000000000---00000000000-----------3-1-0---000000000000---|


E]---------------------------------------------------------------|
B]---------------------------------------------------------------|
G]---------------------------------------------------------------|
D]---222222222222---222222222222---222222222222---222222222222---|
A]---222222222222---222222222222---222222222222---222222222222---|
E]---000000000000---000000000000---000000000000---000000000000---|


E]-----------------------------------------------------------------|
B]-----------------------------------------------------------------|
G]-----------------------------------------------------------------|
D]--222222222222---7-999--7-999--7-999----7-999--7-999---xxxxxxxx--|
A]--222222222222---7-999--7-999--7-999----7-999--7-999---xxxxxxxx--|
E]--000000000000---5-777--5-777--5-777----5-777--5-777---xxxxxxxx--|


El Solo lo estoy sacando aun xD
pero se acompaña con
Dm5 - Am5 - G5  <-------- creo :S


E]---7---7-8-7---7-8-7---7-8-7---7-8-7---7-8-7---7-8-7---7-8-7---|
B]----7-7-----7-7-----7-7-----7-7-----7-7-----7-7-----7-7--------|
G]-----9-------9-------9-------9-------9-------9-------9---------|
D]---------------------------------------------------------------|
A]---------------------------------------------------------------|
E]---------------------------------------------------------------|


E]----------------------------------|
B]---10-8-7-8-----------------------|
G]----------------------------------|
D]----------------   <--------------| se repite dos veces
A]----------------------------------|    a la segunda entra la segunda voz
E]----------------------------------|



E]---------------------------------------------------------------|
B]---8-----8-10-8------8-10-8-----8-10-8------8-10-8-------------|
G]----9-7-9-------9-7-9------9-7-9-------9-7-9-------9-7-9-------|
D]---------------------------------------------------------------|
A]---------------------------------------------------------------|
E]---------------------------------------------------------------|


E]---------------------------------------------------------------|
B]---8------8-10-8------8-10-8-----------------------------------|
G]----9-7-9-------9-7-9--------9-7-6-7---------------------------|
D]---------------------------------------------------------------|
A]---------------------------------------------------------------|
E]---------------------------------------------------------------|


Cuando para el solo entra solo una guitarra

E]---------------------------------------------------------------|
B]---------------------------------------------------------------|
G]---7-7-7-7-7*---7-7-7-10-5-7-----------------------------------|
D]---7-7-7-7------7-7-7-10-5-7-----------------------------------|
A]---5-5-5-5------5-5-5-8--3-5-----------------------------------|
E]---------------------------------------------------------------|



C5-Dm5 C5-Dm5  C5-D5
Cierre del planeta
C5-Dm5    C5-Dm5 C5-Dm5
Almas en liquidación
F            G5
Cambio de negocio
                 Dm5
Fin de civilización


C5-Dm5     C5-Dm5     C5-Dm5
Se ha Inundado el Infierno
C5-Dm5    C5-Dm5  C5-Dm5
Se ha ahogado el Edén
F                G5
Se enquistó la primavera
                        Dm5
Y a las flores que les den.


        F    C5        Dm5
Ya no queda ningún recuerdo
      F     C5   Dm5
Fotogramas del ayer
         F    C5       Dm5
Quién encarcelará tus besos
       F        C5    Dm5
En la celda de tu querer.


E]---------------------------------------------------------------|
B]---------------------------------------------------------------|
G]---7-7-7-7-7---7-7-7-7------7-7-7-7-7---7-7-7-7----------------|
D]---7-7-7-7-7---7-7-7-7--7*--7-7-7-7-7---7-7-7-7----------------|
A]---5-5-5-5-5---5-5-5-5------5-5-5-5-5---5-5-5-5----------------|
E]---------------------------------------------------------------|



F
Ya no quedan sueños
C              Dm
Que difícil es dibujar sonrisas
C
En el corazón
F                 C
Ya no queda nadie con quien naufragar
Dm
Solo queda el ayer.


Cuando entra la gaita
D------------|m5 - Dm5 - Dm5 - Dm5
F------------| - C5 - C5 - Dm5
F - C5 - F5--| E5 - Dm5
F------------| - C5 - C5 - Dm5
F------------| - C5 - C5 - Dm5
C5 - Dm5
F-| - C5 - F5 - E5
D-|m5 - E5 - F5 - G5

E]------------------|
B]------------------|
G]------------------|
D]---7-8----7-------|
A]-------10---------|
E]------------------|


D-|m5 - Dm5 - Dm5 - Dm5
F-|5 - C5 - F5 - E5

Lo siguiente se toca solo una cuerda,asi que para hacerlo mas facil,
pondre la posicion y el tono,
no se confundancon un acorde.
En la letra NO ES EL ACORDE, es el tono de la cuerda

D           F           C

E]--------- E]--------- E]---------|
B]--------- B]--------- B]---------|
G]--------- G]--------- G]---------|
D]--------- D]--------- D]---------|
A]----5---- A]--------- A]----3----|
E]--------- E]----1---- E]---------|

NOTA*: La cuerda se toca de arriba hacia abajo,repito,Solo la cuerda.
Sin parar al hacer el cambio de Tono


D
Ánimas en comunión

Reunión del más allá
F           C
Convocados por Satán
        F    C     F - E <------Estos ultimos dos ya son acordes
Que no para de llorar.


Dm5
Jesucristo con YAHVÉ
Sin parar de discutir
F              C5
Ya no hay nada pa'jugar
                Dm5
Ni a quien manejar.


   F5          C5
El amazonas se ha casado
        F5            C5
Con la lava de un volcán


Dm5C5 Dm5
Oh Oh oh oh oh
F  C  Dm
oh oh oh oh oh

          F        Dm5
Llora el rio, soledad
      F        C5       Dm5
Se desangra de agua el mar
          F               Dm5
Tose el cielo, truenos y luz
     C5          Dm5
Dibujando oscuridad.


         Dm5
Quiero morir en tu mirar
          Am5         Dm5
Quiero morir y despertar
     F             C5
Y tenerte junto a mí, amor
                   Dm5
Sin ti no puedo estar.


Quiero poder recuperar
            Am5          Dm5
Todos los sueños que vendí
       F            C5
Por puñados de progreso amor
               Dm5
Perdí mi libertad.


Dm                C
Hay veces que no sé
                Dm
Si exprimir el sol
               C
Para sentir calor.



Bueno pues aqui esta mi version, espero les guste,
yo se que tiene unos pequeños errores, pero
al tocar la cancion sehuida no se deistinguen mucho
Mucha suerte y Gracias





Comments


Popular Mago De Oz tabs & chords
Duerme Chords
El Que Quiera Entender Chords
Diabulus In Musica Tabs
El Arbol De La Noche Triste Tabs
Fin Del Camino Intro Tabs
La Santa Compaa Tabs
La Santa Compaa 1 Tabs
La Ultima Cena Tabs
Maritornes Tabs
Molinos De Viento (Intro) Tabs


Song lyrics



↑ Back to top | Tablatures and chords are parodies/interpretations of the original songs. You may use it for private study, scholarship, research or language learning purposes only
© 2014 AZChords.com Contact us | Privacy policy | DMCA | Add/correct tabs | Request tabs | Top 50 tabs