» » »

Mago De Oz, Ancha Es Castilla Metal Bass tabs (ver.1)

Artists:  A B C D E F G H I J K L M N O P Q R S T U V W X Y Z # 

Ancha Es Castilla Metal Bass tabs (ver.1)

Mago De Oz Tabs
 Rating:
4/5 (4 votes)
Ancha Es Castilla Metal lessons Tabs too difficult? Try these video lessons and learn fast
1
                Cancion: Ancha es Castilla (Metal Version)
Artista: Mago de Oz
Por: PoloOOoooOoO!!!!

El intro es solo piano hasta el segundo 0:10
G|------------------|
D|------------------|
A|--------------3---|
E|--4--3--6--3------|

|--------|---------|--------|--------|---------|-------|
|--------|---------|--------|--------|---------|-------|
|--3~----|------6--|--5--3--|--6--4--|------1--|----3--|
|-----4--|--6~-----|--------|--------|--1~-----|--3----|

Riff 1 (0:20)
|--------------------------------------------------------------------------|
|--------------------------------------------------------------------------|
|-3-3-3-3------------------6-6-6-5-3-3-3-3-----------------1-1-1-1--3--1-3-|
|---------4-4-4-4--6-6-6-6----------------6-4-4-4-4-1-1-1-1-----------3----|

Verso 1 ("Si crees que todo...")
|-----------------------------------------------------------------|
|-----------------------------------------------------------------|
|-3-3-3-3-3-3-3-3-1-1-1-1-1-1-1-1---------------1-1-1-1-1-1-1-1---|
|--------------------------------4-4-4-4-4-4-4-4------------------|

|---------------------------------------------------------|
|---------------------------------------------------------|
|-3-3-3-3-3-3-3-3-1-1-1-1-1-1-1-1-3-3-3------3-3-3----3-7-|
|--------------------------------------3-3-3------3-6-----|

Riff 2 ("Todos soñamos con ser...")
|------------------------------------------------------------------|
|------------------------------------------------------------------|
|-6-6-6-6-6-6-6-6--------------------------------------------------|
|-----------------6-6-6-6-6-6-6-6-4-4-4-4-4-4-4-4-6-6-6-6-6-6-6-6--|

|--------------------------------------|-------|------------|
|--------------------------------------|-------|------------|
|-6-6-6-6-6-6-6-6----------------------|-Pausa-|--3---1--3--|
|-----------------6-6-6-6-6-6-6-6---4--|-------|----3-------|

Riff 1 (0:55)
|--------------------------------------------------------------------------|x2
|--------------------------------------------------------------------------|
|-3-3-3-3------------------6-6-6-5-3-3-3-3-----------------1-1-1-1--3--1-3-|
|---------4-4-4-4--6-6-6-6----------------6-4-4-4-4-1-1-1-1-----------3----|

Verso 2 ("Si tienes un ideal...")
|-----------------------------------------------------------------|
|-----------------------------------------------------------------|
|-3-3-3-3-3-3-3-3-1-1-1-1-1-1-1-1---------------1-1-1-1-1-1-1-1---|
|--------------------------------4-4-4-4-4-4-4-4------------------|

|---------------------------------------------------------|
|---------------------------------------------------------|
|-3-3-3-3-3-3-3-3-1-1-1-1-1-1-1-1-3-3-3------3-3-3----3-7-|
|--------------------------------------3-3-3------3-6-----|

Riff 2 ("Se rebelde como el...")
|------------------------------------------------------------------|
|------------------------------------------------------------------|
|-6-6-6-6-6-6-6-6--------------------------------------------------|
|-----------------6-6-6-6-6-6-6-6-4-4-4-4-4-4-4-4-6-6-6-6-6-6-6-6--|

|------------------------------------------------------------|
|------------------------------------------------------------|
|-6-6-6-6-6-6-6-6----------------------------------3---1--3--|
|-----------------6-6-6-6-6-6-6-6-4-4-4-4-6-6-6-6----3-------|

Solo de guitarra (1:39)
|-----------------|
|-----------------|
|--3--------------|
|-----4---1---3---|

1:46
|------------------------------------------------------------------------|
|------------------------------------------------------------------------|
|-3-3-3-3-3-3-3-3--------------------------------------------------------|
|-----------------4-4-4-4-4-4-4-4-4-4-1-1-1-1-1-1-1-1-3-3-3-3-3-3-3-3...-|

Riff 1 (1:56)
|--------------------------------------------------------------------------|x2
|--------------------------------------------------------------------------|
|-3-3-3-3------------------6-6-6-5-3-3-3-3-----------------1-1-1-1--3--1-3-|
|---------4-4-4-4--6-6-6-6----------------6-4-4-4-4-1-1-1-1-----------3----|

Interludio (2:15)
|----------------------------------------------------------------------|x4
|----------------------------------------------------------------------|
|-3-3-3-3-3-3-3-3------------------------------------------------------|
|----------------4-4-4-4-4-4-4-4-4-4-1-1-1-1-1-1-1-1-3-3-3-3-3-3-3-3---|

Verso 3 ("No importa cuan loco...")
|-----------------------------------------------------------------|
|-----------------------------------------------------------------|
|-3-3-3-3-3-3-3-3-1-1-1-1-1-1-1-1---------------1-1-1-1-1-1-1-1---|
|--------------------------------4-4-4-4-4-4-4-4------------------|

|---------------------------------------------------------|
|---------------------------------------------------------|
|-3-3-3-3-3-3-3-3-1-1-1-1-1-1-1-1-3-3-3------3-3-3----3-7-|
|--------------------------------------3-3-3------3-6-----|

Riff 2 ("Gritale al cielo que no...")
|------------------------------------------------------------------|
|------------------------------------------------------------------|
|-6-6-6-6-6-6-6-6--------------------------------------------------|
|-----------------6-6-6-6-6-6-6-6-4-4-4-4-4-4-4-4-6-6-6-6-6-6-6-6--|

|------------------------------------------------------------|
|------------------------------------------------------------|
|-6-6-6-6-6-6-6-6----------------------------------3---1--3--|
|-----------------6-6-6-6-6-6-6-6-4-4-4-4-6-6-6-6----3-------|

"Gritale al cielo que no..." (3:08)
|------------------------------------------------------------------|
|------------------------------------------------------------------|
|-6-6-6-6-6-6-6-6--------------------------------------------------|
|-----------------6-6-6-6-6-6-6-6-4-4-4-4-4-4-4-4-6-6-6-6-6-6-6-6--|

|--------------------------------------|-------|
|--------------------------------------|-------|
|-6-6-6-6-6-6-6-6----------------------|-Pausa-|
|-----------------6-6-6-6-6-6-6-6---4--|-------|

"...raaa!!!" (3:25)
|------------------------------------|
|------------------------------------|
|--3~-----3~------6~-----6~-----8~---|
|------------------------------------|

Outro (3:38)
|-------------------|
|-------------------|
|--------------3~---|
|--3--4--6--3-------|
            
Submit corrections

comments powered by Disqus
↑ Back to top | Mago De Oz Bass for Ancha Es Castilla Metal. Lyrics for acoustic guitar and electric guitar. 1 Tablatures and chords are parodies/interpretations of the original songs. You may use it for private study, scholarship, research or language learning purposes only