» » »

31 De Febrero Tabs (ver.2)

Artists:  A B C D E F G H I J K L M N O P Q R S T U V W X Y Z # 

31 De Febrero Tabs (ver.2)

Magnolia Y Los No Me Olvides
Rating:
5/5 (1 vote)

Hard to play? Try these video lessons and learn fast.
                Esta cancion esta bien papas no mas es de agarrarle el ritmo
esta al 100% "SU AFINACION ES NORMAL"

intro
1-----------------------------/-----------------------------/
2------------------------1----/------------------------1----/
3------0------0------0--0-0---/------0------0------0--0-0---/
4--2--2---3--3---2--2--2---2--/--2--2---3--3---2--2--2---2--/
5--3-3----3-3----3-3--3-------/--3-3----3-3----3-3--3-------/
6-----------------------------/-----------------------------/

                       x2
1--------------------------------------------/
2--------------------------------------------/
3--5--5-5-5---7--7-7-7---9--9-9-9---12-9-12--/
4--x--x-x-x---x--x-x-x---x--x-x-x---xx-x-xx--/
5--3--3-3-3---5--5-5-5---7--7-7-7---10-7-10--/
6--------------------------------------------/

                     x4
1-------------------------------------------/
2-------------------------------------------/
3------------------------0-0-0-0---2-2-2-2--/
4---2-2-2-2---2-2-2-2---2-2-2-2---3-3-3-3---/
5--3-3-3-3---0-0-0-0------------------------/
6-------------------------------------------/

do    la-     mi      la-   fa
sabes cuantas cartas te escribi
   do   la-   mi      la-   fa
pero tu direccion hoy ya perdi
      do                     la-                    fa            sol
y evitar que es lo q pudo pasar asi no habra q olvidar solo imaginar
               do                            la-
empezare a cantar y chanse alguien me escuchara
                   fa              sol
quiza solo un pajarillo quiera cantar


lo q sigue se hace al mismo tiempo q las ovtavas
1-----------------------------/-----------------------------/
2------------------------1----/------------------------1----/
3------0------0------0--0-0---/------0------0------0--0-0---/
4--2--2---3--3---2--2--2---2--/--2--2---3--3---2--2--2---2--/
5--3-3----3-3----3-3--3-------/--3-3----3-3----3-3--3-------/
6-----------------------------/-----------------------------/
                     x2
1--------------------------------------------/
2--------------------------------------------/
3--5--5-5-5---7--7-7-7---9--9-9-9---12-9-12--/
4--x--x-x-x---x--x-x-x---x--x-x-x---xx-x-xx--/
5--3--3-3-3---5--5-5-5---7--7-7-7---10-7-10--/
6--------------------------------------------/
                     x4
1-------------------------------------------/
2-------------------------------------------/
3------------------------0-0-0-0---2-2-2-2--/
4---2-2-2-2---2-2-2-2---2-2-2-2---3-3-3-3---/
5--3-3-3-3---0-0-0-0------------------------/
6-------------------------------------------/

do   la-  mi        la-    fa
dime q tiene el q no tenga yo
do   la-      mi      la-  fa
ojos verdes y un gran corazon
      do                   la-                    fa           sol
y evitar q es lo q pudo pasar asi no habra q olvidar solo imaginar
               do                            la-
empezare a cantar y chanse alguien me escuchara
                  fa                      sol
quiza solo un pajarillo fuera a querer cantar

do la- fa sol
do la- fa sol

do la- mi la- fa
do la- mi la- fa

do     la-    mi         la-  fa
yo tambien tengo un gran corazon
   do        la-    mi   la- fa
te lo daria pero el ya decidio
      do                  la-                     fa           sol
y evitar q es lo q pudo pasar asi no habra q olvidar solo imaginar
               do                           la-
empezare a cantar y chanse alguien me escuchara
                  fa                      sol
quiza solo un pajarillo fuera a querer cantar

1--------------------------------/
2------------------------1-------/
3------0------0------0--0-0------/
4--2--2---3--3---2--2--2---2--2--/
5--3-3----3-3----3-3--3-------3--/
6--------------------------------/

las notas siguientes son para los q no se la sepan ps ai estan marcadas en trastes:

  do    la-    mi    fa   sol
1-----/-----/-----/--1--/--3--/
2--1--/--1--/--1--/--1--/--3--/
3-----/--2--/-----/--1--/--3--/
4--2--/--2--/--2--/--3--/--5--/
5--3--/-----/--2--/--3--/--5--/
6-----/-----/-----/--1--/--3--/

un saludo a la prepa 11.
            
Hard to play? Try these video lessons and learn fast. | Correct




comments powered by Disqus
↑ Back to top | Tablatures and chords are parodies/interpretations of the original songs. You may use it for private study, scholarship, research or language learning purposes only