>
 >
Acoustic Guitar

Acoustic Guitar Guitar Tabs

Magnetic Fields - Acoustic Guitar chords, tabs, tablatures, lyrics

Guitar lessons | Add/correct | Request | Top 50 tabs Artists:  A B C D E F G H I J K L M N O P Q R S T U V W X Y Z 0-9

Acoustic Guitar Guitar Tabs – Magnetic Fields

CD, Sheet music, Poster

Do you like Acoustic Guitar? Share with your friends now
Tabs
----------------------------------------------------------------------------
----------------------------------------------------------------------------

Tuning:Standard


INTRO:
E-------------------------------------0-------------------------------3-2-|
B-------------3-2-------------0---------3-----3-2-----------------0-3-----|
G-----------2---------2-0-------2---2-------2---------2-0-------0---------|
D-------020---------2-------0-----0-------0---------2---------0-----------|
A----024----------0-------------------------------0---------2-------------|
E-023---------------------3-------------------------------3---------------|

E-----------------------------0-----------------------------------|
B-----3-2-------------0---------3-----3-2-----3-2-----------------|
G---2---------2-0-------2---2-------2-------2---------2-0-----2-0-|
D-0---------2-------0-----0-------0-------0---------2-------2-----|
A---------0---------------------------------------0-------0-------|
E-----------------3-----------------------------------------------|
Acoustic guitar, I'm gonna make you a star
Get your picture all over the world

E-------------------------------------------------------------3-2-|
B-----3-2-------------0-------3-2-----3-2-----------------0-3-----|
G---2---------2-0-------2---2-------2---------2-0-------0---------|
D-0---------2-------0-----0-------0---------2---------0-----------|
A---------0-------------------------------0---------2-------------|
E-----------------3-------------------------------3---------------|
Acoustic guitar, you can have your own car
Just bring me back my girl

D:x00232     002222    G:320033         D
  She always loved the sound of your strum

                           G          A:577655 or 002220
You made her think maybe I wasn't so dumb

D              002222       G            D
  She tends to faint at the sound of a drum

E-------------------------------|
B-----0------0-------0------0---|
G-------2------2-------2------2-|
D---0------2-------0------2-----|
A--------0--------------0-------|
E-3--------------3--------------|
cause she's folk
so play and maybe she'll come


E-----------------------------0-----------------------------------|
B-----3-2-------------0---------3-----3-2-----3-2-----------------|
G---2---------2-0-------2---2-------2-------2---------2-0-----2-0-|
D-0---------2-------0-----0-------0-------0---------2-------2-----|
A---------0---------------------------------------0-------0-------|
E-----------------3-----------------------------------------------|
Acoustic guitar, how lovely you are
with your inlays of mother of pearl

E-------------------------------------------------------------3-2-|
B-----3-2-------------0-------3-2-----3-2-----------------0-3-----|
G---2---------2-0-------2---2-------2---------2-0-------0---------|
D-0---------2-------0-----0-------0---------2---------0-----------|
A---------0-------------------------------0---------2-------------|
E-----------------3-------------------------------3---------------|
Be a good guitar and you can go far
Just bring me back my girl

D     002222    G                 D
She always said that you were the one

                            G           A
who could make her move her cute little bum

D              002222       G        D
You understand where she's coming from

E-------------------------------|
B-----0------0-------0------0---|
G-------2------2-------2------2-|
D---0------2-------0------2-----|
A--------0--------------0-------|
E-3--------------3--------------|
which I obviously don't
or she wouldn't be gone

INTERLUDE:
E-------------------------------------0-------------------------------0----|
B------------23-2-------------0------2--3----23-2-------------0------2--3--|
G-----------2--2-2---02-0-------2---2--2-2--2--2-2---02-0-------2---2--2-2-|
D-------0204--------2--2-2--0-----04------04--------2--2-2--0-----04-------|
A----024----------04------------------------------04-----------------------|
E-023---------------------3-------------------------------3----------------|

E-----------------------------0-----------------------------------|
B-----3-2-------------0---------3-----3-2-----3-2-----------------|
G---2---------2-0-------2---2-------2-------2---------2-0-----2-0-|
D-0---------2-------0-----0-------0-------0---------2-------2-----|
A---------0---------------------------------------0-------0-------|
E-----------------3-----------------------------------------------|
Acoustic guitar, if you think I play hard
well, you could have belonged to Steve Earle

E-------------------------------------------------------------3-2-|
B-----3-2-------------0-------3-2-----3-2-----------------0-3-----|
G---2---------2-0-------2---2-------2---------2-0-------0---------|
D-0---------2-------0-----0-------0---------2---------0-----------|
A---------0-------------------------------0---------2-------------|
E-----------------3-------------------------------3---------------|
or Charo or Gwar
I could sell you tomorrow
so bring me back my girl

E----------------------------------------|
B-----3-2------------------+12---+5------|
G---2---------2-0-------0------+5-----+5-|
D-0---------2---------0------+5-----+5---|
A---------0---------2--------------------|
E-----------------3----------------------|
You'd better bring me back my girl

| /  slide up
| \  slide down
| h  hammer-on
| p  pull-off
| ~  vibrato
| +  harmonic
| x  Mute note





Comments


Popular Magnetic Fields tabs & chords
The Death Of Ferdinand De Saussure Bass Tabs
Nothing Matters When Were Dancing Chords
You Must Be Out Of Your Mind Chords
A Chicken With Its Head Cut Off Tabs
Why I Cry Tabs
Epitaph For My Heart Ukulele
Grand Canyon Ukulele
I Dont Believe In The Sun Ukulele
Lets Pretend Were Bunny Rabbits Ukulele
Queen Of The Savages Ukulele


Song lyrics



↑ Back to top | Tablatures and chords are parodies/interpretations of the original songs. You may use it for private study, scholarship, research or language learning purposes only
© 2014 AZChords.com Contact us | Privacy policy | DMCA | Add/correct tabs | Request tabs | Top 50 tabs