>
 >
 >
Summertime 1

Summertime 1 Guitar Tabs

Mae - Summertime 1 chords, tabs, tablatures, lyrics

Guitar lessons | Add/correct | Request | Top 50 tabs Artists:  A B C D E F G H I J K L M N O P Q R S T U V W X Y Z 0-9

Summertime 1 Guitar Tabs – Mae

CD, Sheet music, Poster

Do you like Summertime 1? Share with your friends now
TabsTabs v2Tabs v3

Tuning:D A D G B e

Intro/Chorus:                                   (For chorus,2nd and 4th pt.) 
e|------------------------------------------------|(-------------|)
B|------------------------------------------------|(-------------|)
G|------------------------------------------------|(-------------|)
D|-11-----11-11-0-11-----11-11--0-7-7-7-7-7-7-----|(-0-0-0-0-0-0-|)
A|--9------9--9-0--9------9--9--0-5-5-5-5-5-5-----|(-0-0-0-0-0-0-|)
D|--9------9--9-0--9------9--9--0-5-5-5-5-5-5-----|(-0-0-0-0-0-0-|)

Verse pt. 1:
e|---------------------------------------|
B|---------------------------------------|
G|---------------------------6---6-7-----|
D|-0-0-----0-0-0-0-0-----0-0-4-0-4-5-----|
A|-0-0-----0-0-0-0-0-----0-0-4-0-4-5-----|
D|-0-0-----0-0-0-0-0-----0-0---0---------|
pm:. .     . . . . .     . . . . . .

Verse pt. 2:
e|-------------------------------------------------------------------------|
B|-------------------------------------------------------------------------|
G|--------------------------6---6-7------------------------11-11-11-11-11--|
D|-9-9-----9-9-9-9-5----0-0-4-0-4-5-----0-0---0-0-0-0-0---0-x--x--x--x--x--|
A|-9-9-----9-9-9-9-5----0-0-4-0-4-5-----0-0---0-0-0-0-0---0-9--9--9--9--9--|
D|-9-9-----9-9-9-9-5----0-0---0---------0-0---0-0-0-0-0---0----------------|
pm:. .     . . . . .    . . . . . .     . .   . . . . .   .

End:
e|--------|
B|--------|
G|-9~-----|
D|-x------|
A|-7~-----|
D|--------|

Bridge pt. 1:
e|-----------------|
B|----*7-----------|
G|-*5----*7-*7-----|
D|-----------------|
A|-----------------|
D|-----------------|

Bridge pt. 2:                          At 4th end with:
e|------------------------------------|-----------|
B|--11-11-11-11--7-7-7----------------|-----------|
G|-9--9--9--9---5-5-5-5---7--7~-------|---7~------|
D|-------------5--------5--5----------|---5~------|
A|------------------------------------|-----------|
D|------------------------------------|-----------|
                       ^-------^ not played 4th time.
Outro pt. 1:
e|--------------------------------------------------------------------------|
B|--------------------------------------------------------------------------|
G|-------------------------------------------9-9-9-9---------6-6-6-6--------|
D|-9-9-9-11-11-11-11-0-5-5-5-7-7-7-7-0-0-0-0-x-x-x-x-0-0-0-0-x-x-x-x-0------|
A|-9-9-9-9--9--9--9--0-5-5-5-5-5-5-5-0-0-0-0-7-7-7-7-0-0-0-0-4-4-4-4-0------|
D|-9-9-9-9--9--9--9--0-5-5-5-5-5-5-5-0-0-0-0---------0-0-0-0---------0------|

Outro pt. 2:
e|--------------------------------------------------------------------------|
B|--------------------------------------------------------------------------|
G|-------------------------------------------9---976---6x-7x--14-14x--------|
D|-9-9-9-11-11-11-11-0-5-5-5-7-7-7-7-0-0-0-0-x-0-xxx-0-x--x----x--x---------|
A|-9-9-9-9--9--9--9--0-5-5-5-5-5-5-5-0-0-0-0-7-0-754-0-4x-5x--12-12x--------|
D|-9-9-9-9--9--9--9--0-5-5-5-5-5-5-5-0-0-0-0---0-----0----------------------|
                                      ^-----------------------------^ 
                                   dont play 4th time/let last note ring.
Intro x 1
Verse pt. 1 x 4
Verse pt. 2 x 1
Verse pt. 1 x 2
Verse pt. 2 x 1 + End
Chorus x 4
Verse pt. 1 x 4
Verse pt. 2 x 1
Verse pt. 1 x 2
Verse pt. 2 x 1 + End
Chorus x 4
Bridge pt. 1 x 4
Bridge pt. 2 x 4
Outro pt. 1 x 4
Outro pt. 2 x 4
Intro x 1

End with
e|----------------|
B|----------------|
G|-7-7-7-7-7x-----|
D|-7-7-7-7-7x-----|
A|-5-5-5-5-5x-----|
D|-0-0-0-0-0x-----|

Basic tab of the song. some harmonics not shown. Enjoy. =)





Comments


Popular Mae tabs & chords
Where The Falls Begin Chords
Crazy Eights Tabs
Goodbye, Goodnight Tabs
Prologue Tabs
Soundtrack For Our Movie Tabs
Summertime Tabs
Sun And The Moon Tabs
Suspension Tabs
Tisbury Lane 1 Tabs
This Is The Countdown Ukulele


Song lyrics



↑ Back to top | Tablatures and chords are parodies/interpretations of the original songs. You may use it for private study, scholarship, research or language learning purposes only
© 2014 AZChords.com Contact us | Privacy policy | DMCA | Add/correct tabs | Request tabs | Top 50 tabs