» » »

Mae, Soundtrack For Our Movie Bass tabs (ver.1)

Artists:  A B C D E F G H I J K L M N O P Q R S T U V W X Y Z # 

Soundtrack For Our Movie Bass tabs (ver.1)

Mae Tabs
 Rating:
4/5 (4 votes)
Soundtrack For Our Movie lessons Tabs too difficult? Try these video lessons and learn fast
1
                Tuning: Standard 4-string (GDAE)

Intro (0:00)

G|------|
D|------|
A|5(x16)|
E|------|

Verse (0:03)

G|-------------------------------------|
D|-------------------------------------|
A|5(x16)-2(x16)-------------------5----|
E|--------------3(x8)-0(x8)-7(x3)---5-3| (x2)

Chorus 1 (0:28)

G|-------------------------------------------------------|
D|-------------------------------------------------------|
A|------------------2-2-0-0-0-------------------5-5-4-0-0|
E|2-2-3-3---2-2-3-3-------------2-2-3-3-2-2-3-3----------|

G|-------------------------------------------------------|
D|-------------------------------------------------------|
A|------------------2-2-0-0-0-------------------5-5-5-5-5|
E|2-2-3-3---2-2-3-3-------------2-2-3-3-2-2-3-3----------|


Verse (0:42)

G|-------------------------------------|
D|-------------------------------------|
A|5(x16)-2(x16)-------------------5----|
E|--------------3(x8)-0(x8)-7(x3)---5-3| (x2)
                            ^
                            |second time bass stops here (x2 instead of x3)

Chorus 2 (1:07)

G|---------------------------------------------------------|
D|---------------------------------------------------------|
A|---------------------------------------------------------|
E|2-2-3-3---2-2-3-3-2-2-3-3-3---2-2-3-3---2-2-3-3-5-5-5-5-5|

G|------------------------------------|
D|------------------------------------|
A|------------------2-2-0-0-0-0~------|
E|2-2-3-3---2-2-3-3--------------2~-3~|

Bridge (1:21)

G|--------|
D|--------|
A|0~-2~---|
E|------3~| (x4)

Verse (1:35)

G|-------------------------------------|
D|-------------------------------------|
A|5(x16)-2(x16)-------------------5----|
E|--------------3(x8)-0(x8)-7(x3)---5-3| (x2)

Play this before the verse (2:00)

G|---------------------------|
D|---------------------------|
A|------------------2-2-0-0-0|
E|2-2-3-3---2-2-3-3----------|

Verse (2:03)

G|-------------------------------------|
D|-------------------------------------|
A|5(x16)-2(x16)-------------------5----|
E|--------------3(x8)-0(x8)-7(x3)---5-3|

Chorus 2 (2:15)

G|---------------------------------------------------------|
D|---------------------------------------------------------|
A|---------------------------------------------------------|
E|2-2-3-3---2-2-3-3-2-2-3-3-3---2-2-3-3---2-2-3-3-5-5-5-5-5|

G|---------------------------------|
D|---------------------------------|
A|------------------2-2-0-0-0-0~---|
E|2-2-3-3---2-2-3-3--------------2~| (repeat the whole chorus x2)

Outro (2:40)

G|-----------------|
D|-----------------|
A|5----------------|
E|--3-3-3-3---3---3| (x3)

G|---------------|
D|---------------|
A|5-5-5-5-0-0-0-0|
E|---------------|

G|-----------------|
D|-----------------|
A|5----------------|
E|--3-3-3-3---3---3| (x3)

G|---------------|
D|---------------|
A|5-5-5-5-0-0-0-0|
E|---------------|

That's it. Nice song from a great band!
This is my second tab so please rate!
            
Submit corrections

comments powered by Disqus
↑ Back to top | Mae Bass for Soundtrack For Our Movie. Lyrics for acoustic guitar and electric guitar. 1 Tablatures and chords are parodies/interpretations of the original songs. You may use it for private study, scholarship, research or language learning purposes only