>
 >
 >
Soundtrack For Our Movie

Soundtrack For Our Movie Guitar Tabs

Mae - Soundtrack For Our Movie chords, tabs, tablatures, lyrics

Guitar lessons | Add/correct | Request | Top 50 tabs Artists:  A B C D E F G H I J K L M N O P Q R S T U V W X Y Z 0-9

Soundtrack For Our Movie Guitar Tabs – Mae

CD, Sheet music, Poster

Do you like Soundtrack For Our Movie? Share with your friends now
Bass TabsTabs

Gtr I   D A D G B e  Rhythm
Gtr II  D A D G B e  Lead

INTRO

Gtr I
e|----------------------------------------------------------------------------|
B|----------------------------------------------------------------------------|
G|----------------------------------------------------------------------------|
D|----------------------------------------------------------------------------|
A|-5-5-5-5-5-5-5-5-5-5-5-5-5-5-5-5-5-5-5-5-5-5-5-5-5-5-5-5-5-5-5-5--------17/-|
D|-0-0-0-0-0-0-0-0-0-0-0-0-0-0-0-0-0-0-0-0-0-0-0-0-0-0-0-0-0-0-0-0--------17/-|

e|-------------------------------------------------------------------------------|
B|-------------------------------------------------------------------------------|
G|-------------------------------------------------------------------------------|
D|--------------------------------------------------------------------------7--5-|
A|-9-9-9-9-9-9-9-9-9-9-9-9-9-9-9-9-5-5-5-5-5-5-5-5-2-2-2-2-2-2-2-2-9-9-9-9--7--5-|
D|-9-9-9-9-9-9-9-9-9-9-9-9-9-9-9-9-5-5-5-5-5-5-5-5-2-2-2-2-2-2-2-2-9-9-9-9--7--5-|

e|----------------------------------------------------------------------------|
B|----------------------------------------------------------------------------|
G|----------------------------------------------------------------------------|
D|----------------------------------------------------------------------------|
A|-5-5-5-5-5-5-5-5-5-5-5-5-5-5-5-5-9-9-9-9-9-9-9-9-9-9-9-9-9-9-9-9------------|
D|-0-0-0-0-0-0-0-0-0-0-0-0-0-0-0-0-9-9-9-9-9-9-9-9-9-9-9-9-9-9-9-9------------|

e|-------------------------------------------------------------|
B|-------------------------------------------------------------|
G|-------------------------------------------------------------|
D|------------------------------------------7--5---------------|
A|-5-5-5-5-5-5-5-5-2-2-2-2-2-2-2-2-9-9-9-9--7--5---------------|
D|-5-5-5-5-5-5-5-5-2-2-2-2-2-2-2-2-9-9-9-9--7--5---------------|


e|-------------------------------------------------------------|
B|-------------------------------------------------------------|
G|---------------------------------------------------7-6-6-----|
D|-7-7-7-7--7-7-7-7--9-9-7-7-7---7-7-7-7--7-7-7-7--5-x-x-x-7---|
A|-5-5-5-5--5-5-5-5--9-9-7-7-7---5-5-5-5--5-5-5-5--5-5-4-4-7---|
D|-4-4-5-5--4-4-5-5--9-9-7-7-7---4-4-5-5--4-4-5-5--5-------7---|

e|-------------------------------------------------------------|
B|-------------------------------------------------------------|
G|-------------------------------------------------7-7-7-7-7---|
D|-7-7-7-7--7-7-7-7--9-9-7-7-7---7-7-7-7--7-7-7-7--x-x-x-x-x---|
A|-5-5-5-5--5-5-5-5--9-9-7-7-7---5-5-5-5--5-5-5-5--5-5-5-5-5---|
D|-4-4-5-5--4-4-5-5--9-9-7-7-7---4-4-5-5--4-4-5-5--------------|

Gtr 2
e|-------------------------------------------------------------------------------|
B|-------------------------------------------------------------------------------|
G|-------------------------------------------------------------------------------|
D|--------------------------------------------------------------------------7--5-|
A|-9-9-9-9-9-9-9-9-9-9-9-9-9-9-9-9-5-5-5-5-5-5-5-5-2-2-2-2-2-2-2-2-9-9-9-9--7--5-|
D|-9-9-9-9-9-9-9-9-9-9-9-9-9-9-9-9-5-5-5-5-5-5-5-5-2-2-2-2-2-2-2-2-9-9-9-9--7--5-|

e|----------------------------------------------------------------------------|
B|----------------------------------------------------------------------------|
G|----------------------------------------------------------------------------|
D|----------------------------------------------------------------------------|
A|-5-5-5-5-5-5-5-5-5-5-5-5-5-5-5-5-9-9-9-9-9-9-9-9-9-9-9-9-9-9-9-9------------|
D|-0-0-0-0-0-0-0-0-0-0-0-0-0-0-0-0-9-9-9-9-9-9-9-9-9-9-9-9-9-9-9-9------------|

e|-------------------------------------------------------------|
B|-------------------------------------------------------------|
G|-------------------------------------------------------------|
D|------------------------------------------7--5---------------|
A|-5-5-5-5-5-5-5-5-2-2-2-2-2-2-2-2-9-9-9-9--7--5---------------|
D|-5-5-5-5-5-5-5-5-2-2-2-2-2-2-2-2-9-9-9-9--7--5---------------|


e|-10-10-10-10-10-10-10-10-10-10-10-10-10-10-10-10-10-10-10-10-10-10-10-10-10-10-10-10-10-10-10-|
B|-x--x--x--x--x--x--x--x--x--x--x--x--x--x--x--x--x--x--x--x--x--x--x--x--x--x--x--x--x--x--x--|
G|-7--7--7--7--7--7--7--7--7--7--7--7--7--7--7--7--7--7--7--7--7--7--7--7--7--7--7--7--7--7--7--|
D|-0--0--0--0--0--0--0--0--0--0--0--0--0--0--0--0--0--0--0--0--0--0--0--0--0--0--0--0--0--0--0--|
A|----------------------------------------------------------------------------------------------|
D|----------------------------------------------------------------------------------------------|

VERSE 

Gtr I
e|----------------------------------------------------------------------------|
B|----------------------------------------------------------------------------|
G|----------------------------------------------------------------------------|
D|----------------------------------------------------------------------------|
A|-5-5-5-5-5-5-5-5-5-5-5-5-5-5-5-5-9-9-9-9-9-9-9-9-9-9-9-9-9-9-9-9------------|
D|-0-0-0-0-0-0-0-0-0-0-0-0-0-0-0-0-9-9-9-9-9-9-9-9-9-9-9-9-9-9-9-9------------|

e|-------------------------------------------------------------|
B|-------------------------------------------------------------|
G|-------------------------------------------------------------|
D|------------------------------------------7--5---------------|
A|-5-5-5-5-5-5-5-5-2-2-2-2-2-2-2-2-9-9-9-9--7--5---------------|
D|-5-5-5-5-5-5-5-5-2-2-2-2-2-2-2-2-9-9-9-9--7--5---------------|

e|----------------------------------------------------------------------------|
B|----------------------------------------------------------------------------|
G|----------------------------------------------------------------------------|
D|----------------------------------------------------------------------------|
A|-5-5-5-5-5-5-5-5-5-5-5-5-5-5-5-5-9-9-9-9-9-9-9-9-9-9-9-9-9-9-9-9------------|
D|-0-0-0-0-0-0-0-0-0-0-0-0-0-0-0-0-9-9-9-9-9-9-9-9-9-9-9-9-9-9-9-9------------|

e|-----------------------------------------------------------|
B|-----------------------------------------------------------|
G|-----------------------------------------------------------|
D|-------------------------------------------9---9-----------|
A|-5-5-5-5-5-5-5-5-2-2-2-2-2-2-2-2-9-9-9-9---9---9-----------|
D|-5-5-5-5-5-5-5-5-2-2-2-2-2-2-2-2-9-9-9-9---9---9-----------|

Gtr II
e|-------10------------------------------10--------10----10----9----9---------|
B|-----------------10---------------------------------10----10---10---10------|
G|-11-12----11-12-----12-11-9--7---11-12----11-12-----------------------------|
D|----------------------------------------------------------------------------|
A|----------------------------------------------------------------------------|
D|----------------------------------------------------------------------------|

CHORUS

Gtr I
e|-------------------------------------------------------------|
B|-------------------------------------------------------------|
G|-------------------------------------------------9-9-9-9-9---|
D|-7-7-7-7--7-7-7-7--7-7-7-7-7---7-7-7-7--7-7-7-7--7-7-7-7-7---|
A|-5-5-5-5--5-5-5-5--5-5-5-5-5---5-5-5-5--5-5-5-5--7-7-7-7-7---|
D|-4-4-5-5--4-4-5-5--4-4-5-5-5---4-4-5-5--4-4-5-5--7-7-7-7-7---|

e|-------------------------------------------|
B|-------------------------------------------|
G|-------------------------------------------|
D|-7-7-7-7--7-7-7-7--9-9-7-7-7---7---9---5---|
A|-5-5-5-5--5-5-5-5--9-9-7-7-7---7---9---5---|
D|-4-4-5-5--4-4-5-5--9-9-7-7-7---7---9---5---|

Gtr II
e|-10-10-10-10-10-10-10-10-10-10-10-10-10-10-10-10-10-10-10-10-10-10-10-10-10-10-10-10-10-10-10-|
B|-x--x--x--x--x--x--x--x--x--x--x--x--x--x--x--x--x--x--x--x--x--x--x--x--x--x--x--x--x--x--x--|
G|-7--7--7--7--7--7--7--7--7--7--7--7--7--7--7--7--7--7--7--7--7--7--7--7--7--7--7--7--7--7--7--|
D|-0--0--0--0--0--0--0--0--0--0--0--0--0--0--0--0--0--0--0--0--0--0--0--0--0--0--0--0--0--0--0--|
A|----------------------------------------------------------------------------------------------|
D|----------------------------------------------------------------------------------------------|

POST CHORUS

Gtr I (Delay)
e|-----------------------------------------------------------|
B|-----------------------------------------------------------|
G|-----------------------------------------------------------|
D|-----7------9------5------5------7------9--5---------------|
A|---7------9------5------5------7------9----5---------------|
D|-7------9------5------5------7------9------5---------------|

Gtr II
e|-------10---------------------------10---------------------|
B|------------------10---------------------------10----------|
G|-11-12----11-12------12-11----11-12----11-12------12-11----|
D|-----------------------------------------------------------|
A|-----------------------------------------------------------|
D|-----------------------------------------------------------|

BRIDGE

Gtr I
e|----------------------------------------------------------------------------|
B|----------------------------------------------------------------------------|
G|----------------------------------------------------------------------------|
D|----------------------------------------------------------------------------|
A|-5-5-5-5-5-5-5-5-5-5-5-5-5-5-5-5-9-9-9-9-9-9-9-9-9-9-9-9-9-9-9-9------------|
D|-0-0-0-0-0-0-0-0-0-0-0-0-0-0-0-0-9-9-9-9-9-9-9-9-9-9-9-9-9-9-9-9------------|

e|-------------------------------------------------------------|
B|-------------------------------------------------------------|
G|-------------------------------------------------------------|
D|------------------------------------------7--5---------------|
A|-5-5-5-5-5-5-5-5-2-2-2-2-2-2-2-2-9-9-9-9--7--5---------------|
D|-5-5-5-5-5-5-5-5-2-2-2-2-2-2-2-2-9-9-9-9--7--5---------------|

e|-------------------------------|
B|-------------------------------|
G|-------------------------------|
D|-7-7-7-7--7-7-7-7--9-9-7-7-7---|
A|-5-5-5-5--5-5-5-5--9-9-7-7-7---|
D|-4-4-5-5--4-4-5-5--9-9-7-7-7---|


Gtr II
e|-----------5---------------------------------------------------------------|
B|-5-7-5-7------7-7-5-7-5-----------------7-7-----------7-7---------7---10---|
G|---------7---------------6-7-6-7--6--4------7-------------7-6---7---7------|
D|----------------------------------------------7--5-4-----------------------|
A|---------------------------------------------------------------------------|
D|---------------------------------------------------------------------------|

e|-10-10-10-10-10-10-10-10-10-10-10-10-10-10-10-10-|
B|-x--x--x--x--x--x--x--x--x--x--x--x--x--x--x--x--|
G|-7--7--7--7--7--7--7--7--7--7--7--7--7--7--7--7--|
D|-0--0--0--0--0--0--0--0--0--0--0--0--0--0--0--0--|
A|-------------------------------------------------|
D|-------------------------------------------------|

VERSE

Gtr I
e|----------------------------------------------------------------------------|
B|----------------------------------------------------------------------------|
G|----------------------------------------------------------------------------|
D|----------------------------------------------------------------------------|
A|-5-5-5-5-5-5-5-5-5-5-5-5-5-5-5-5-9-9-9-9-9-9-9-9-9-9-9-9-9-9-9-9------------|
D|-0-0-0-0-0-0-0-0-0-0-0-0-0-0-0-0-9-9-9-9-9-9-9-9-9-9-9-9-9-9-9-9------------|

e|-------------------------------------------------------------|
B|-------------------------------------------------------------|
G|-------------------------------------------------------------|
D|------------------------------------------7--5---------------|
A|-5-5-5-5-5-5-5-5-2-2-2-2-2-2-2-2-9-9-9-9--7--5---------------|
D|-5-5-5-5-5-5-5-5-2-2-2-2-2-2-2-2-9-9-9-9--7--5---------------|

Gtr II tacet

CHORUS

Gtr I
e|-------------------------------------------------------------|
B|-------------------------------------------------------------|
G|-------------------------------------------------9-9-9-9-9---|
D|-7-7-7-7--7-7-7-7--7-7-7-7-7---7-7-7-7--7-7-7-7--7-7-7-7-7---|
A|-5-5-5-5--5-5-5-5--5-5-5-5-5---5-5-5-5--5-5-5-5--7-7-7-7-7---|
D|-4-4-5-5--4-4-5-5--4-4-5-5-5---4-4-5-5--4-4-5-5--7-7-7-7-7---|

e|-------------------------------------------|
B|-------------------------------------------|
G|-------------------------------------------|
D|-7-7-7-7--7-7-7-7--9-9-7-7-7---7---9---5---|
A|-5-5-5-5--5-5-5-5--9-9-7-7-7---7---9---5---|
D|-4-4-5-5--4-4-5-5--9-9-7-7-7---7---9---5---|

Gtr II
e|-10-10-10-10-10-10-10-10-10-10-10-10-10-10-10-10-10-10-10-10-10-10-10-10-10-10-10-10-10-10-10-|
B|-x--x--x--x--x--x--x--x--x--x--x--x--x--x--x--x--x--x--x--x--x--x--x--x--x--x--x--x--x--x--x--|
G|-7--7--7--7--7--7--7--7--7--7--7--7--7--7--7--7--7--7--7--7--7--7--7--7--7--7--7--7--7--7--7--|
D|-0--0--0--0--0--0--0--0--0--0--0--0--0--0--0--0--0--0--0--0--0--0--0--0--0--0--0--0--0--0--0--|
A|----------------------------------------------------------------------------------------------|
D|----------------------------------------------------------------------------------------------|

OUTRO

GTR I tacet

GTR II
e|-------------------------5------------------------------10------------------|
B|---------7-----7-8-7-------7-7h8-7-5--------7-----7-8-7----7-7-8-10--8-7----|
G|-------------------------------------7--------------------------------------|
D|-------7-----7---------7-----------------7------7---------------------------|
A|----------------------------------------------------------------------------|
D|-17/-5-----5---------5-----------------5------5-----------------------------|

Fin.


Well I'm really trying and it seems like it's right.
Please Rate.





Comments


Popular Mae tabs & chords
The Fisherman Song (We All Need Love) Bass Tabs
Singularity Chords
Somewhere Chords
Sun (Acoustic) Chords
The Everglow 1 Chords
Embers And Envelopes Tabs
Just Let Go Tabs
Prologue 1 Tabs
Suspension 7 Tabs
This Time Is The Last Time Tabs


Song lyrics



↑ Back to top | Tablatures and chords are parodies/interpretations of the original songs. You may use it for private study, scholarship, research or language learning purposes only
© 2014 AZChords.com Contact us | Privacy policy | DMCA | Add/correct tabs | Request tabs | Top 50 tabs