» » »

Mae, Prologue Tabs (ver.2)

Artists:  A B C D E F G H I J K L M N O P Q R S T U V W X Y Z # 

Prologue Tabs (ver.2)

Mae Tabs
 Rating:
4/5 (4 votes)
Prologue lessons Tabs too difficult? Try these video lessons and learn fast
                Prologue
The Everglow
Mae
Capo: 1st fret
Key: C# (C relative to capo)
Tempo: 100-110
Time signature: 3/4


This song is played on piano, but you can play it on guitar if you think of Guitar 1
as the right hand on the piano, and Guitar 2 as the left hand.
(NOTE: Guitar 1 is one octave lower than what the piano is playing in the real song.)


Part 1:
C# (C)


Guitar 1:
  Relative to capo
e|0-----------------------0-----------------------0-----------------------0-----------------------|
B|----1-----------------------1-----------------------1-----------------------1-------------------|
G|--------------------0-----------------------0-----------------------0-----------------------0---|
D|--------3-------2---------------3-------2---------------3-------2---------------3-------2-------|
A|------------------------------------------------------------------------------------------------|
E|------------------------------------------------------------------------------------------------|


Guitar 2:
  Relative to capo
e|------------------------------------------------------------------------------------------------|
B|--------3-------1---------------3-------1---------------3-------1---------------3-------1-------|
G|----0-------0-------0-------0-------0-------0-------0-------0-------0-------0-------0-------0---|
D|------------------------------------------------------------------------------------------------|
A|3-----------------------3-----------------------3-----------------------3-----------------------|
E|------------------------------------------------------------------------------------------------|


Part 2:
A#m (Am)


Guitar 1:
  Relative to capo
e|------------------------------------------------------------------------------------------------|
B|--------1-----------3-----------1-----------3-----------1-----------3-----------1-----------3---|
G|------------------------------------------------------------------------------------------------|
D|2---3-------2---3-------2---3-------2---3-------2---3-------2---3-------2---3-------2---3-------|
A|------------------------------------------------------------------------------------------------|
E|------------------------------------------------------------------------------------------------|


Guitar 2:
  Relative to capo
e|------------------------------------------------------------------------------------------------|
B|----------------0---1-------------------0---1-------------------0---1-------------------0---1---|
G|--------2-----------------------2-----------------------2-----------------------2---------------|
D|----2-------2---------------2-------2---------------2-------2---------------2-------2-----------|
A|0-----------------------0-----------------------0-----------------------0-----------------------|
E|------------------------------------------------------------------------------------------------|
            
Submit corrections

comments powered by Disqus
↑ Back to top | Mae Tabs for Prologue. Lyrics for acoustic guitar and electric guitar. Tablatures and chords are parodies/interpretations of the original songs. You may use it for private study, scholarship, research or language learning purposes only