» » »

Madrugada, You Better Leave Tabs (ver.1)

Artists:  A B C D E F G H I J K L M N O P Q R S T U V W X Y Z # 

You Better Leave Tabs (ver.1)

Madrugada Tabs
 Rating:
4/5 (4 votes)
You Better Leave lessons Tabs too difficult? Try these video lessons and learn fast
                

This is one of my fav songs. I hope you like it. (Chris Harris.)

(Standart Tunning.Add some distortion,not full)

                   (Intro)
             Am              Am                E               Am
------------0~----------------0~-------------0~--0~----------0~------|
------------1~--1~------------1~--1~---------0~--0~----------1~--1---|
------------2~--2~------------2~--2~---------1~--1~----------2~--2---|
---------2~-----2~--------2~------2~-------------2~--------2~----2---|
---3-2-3-0~---------3-2-3-0~---------0-2-3-2-----2~--3-2-3-0~--------|
---------------------------------------------------------------------|

                    (Verse)
             Am              Am                E               Am
------------0~---------------0~--------------0~--0~-----------0~------|
---------------1~---------------1~-----------1~---------------1~--1---|
---------------------------------------------1~---------------2~--2---|
---------------------------------------------2~-----------2~------2---|
---3-2-3-0~---------3-2-3-0~--------0-2-3-2--2~-----3-2-3-0~----------|
----------------------------------------------------------------------|

(Verse-Play it as it is above)

      3-2-3-0  Am
Flies in your window
      3-2-3-0  Am
Junk in your mail
     0-2-3-2   E
Some ragged old sorrow
            Am
Hot on your trail
             Am
No-one comes to you
               Am
Not even in your dreams
                           E
There ain't nothing moving through you
                      Am
It's all as bad as it seems


         (Chorus)

      Dm
She is a shadow
                 Am
Of something you wanted
              E
How badly you wanted it
                    Am
It still drives you insane


                                    ( 1st Solo )

-----888-777-888--7--5(x15+)----888-777-888-7-5(x15+)----------|
---------------------------------------------------------------|
---------------------------------------------------------------|
---------------------------------------------------------------|
---------------------------------------------------------------|
---------------------------------------------------------------|

777-888-10(x3)-888--777---444---12(x10)---16-17(x10)-----------|
---------------------------------------------------------------|
---------------------------------------------------------------|
---------------------------------------------------------------|
---------------------------------------------------------------|
---------------------------------------------------------------|

         [Verse, Start gently :P (listen to the song & u'll see )]

            Am
You're a dirty man to want her
            Am
And you were junk for letting go
                    E
You're a fool to even wanna be around her
                    Am
Those other people you don't even wanna know
          Am
You can't hold up in
          Am
Close to your heart
           E
You can't hold up in
           Am
You just tear things apart


    (Chorus)


        Dm
You better leave
            Am
Leave a reed shadow
                E
A late night reed shadow
            Am
To the ivory room
         Dm
You better leave
         Am
Leave a reed shadow
             E
A late night reed shadow
          Am
To the ivory room


    (2nd Solo) - (I think it's alsmost what Buras does  but you better listen to the song  
and play it the way you want)


-------------------------------------------------------------------|
---------------------------------------------------121212-13131313-|
-222--444--555--777--999---101010--121212---141414-----------------|
-------------------------------------------------------------------|
-------------------------------------------------------------------|
-------------------------------------------------------------------|

---------------------------------------------------------------|
--13^^--13^^--13^^--13^^--13^^--13^^--12s13s17--17-17^-15-17---|
---------------------------------------------------------------|
---------------------------------------------------------------|
---------------------------------------------------------------|
---------------------------------------------------------------|

---------------------------------------------------------------|
--5^~~~--------------------------------------------------------|
--7^-777777777^^^^^^^----5-7777^^--5-77777^^---5s7777777^--5---|
-------------------------------------------------------------7-|
---------------------------------------------------------------|
---------------------------------------------------------------|

       (Chorus)

        Dm
She is a shadow
                Am
Of something you wanted
               E
How badly you wanted it
                    Am
It still drives you insane
----------------------------------------------------------

Say "Thanks" if you liked it!
Don't forget to rate.

Chris.H
            
Submit corrections

comments powered by Disqus
↑ Back to top | Madrugada Tabs for You Better Leave. Lyrics for acoustic guitar and electric guitar. Tablatures and chords are parodies/interpretations of the original songs. You may use it for private study, scholarship, research or language learning purposes only