» » »

Madrugada, Sweet Simone Tabs (ver.1)

Artists:  A B C D E F G H I J K L M N O P Q R S T U V W X Y Z # 

Sweet Simone Tabs (ver.1)

Madrugada Tabs
 Rating:
4/5 (4 votes)
Sweet Simone lessons Tabs too difficult? Try these video lessons and learn fast
                
Standard tuning (EADGBE)

This is a simple song to play that consists of 3-4 walks, 
and that's really all that it's to it.

Intro:
Strum upwards and downwards. Twice.

e|--0-0-0-0-0-0-0-0--|
B|--0-0-0-0-0-0-0-0--|
G|--0-0-0-0-0-0-0-0--|
D|--2-2-2-2-2-2-2-2--|
A|--2-2-2-2-2-2-2-2--|
E|--0-0-0-0-0-0-0-0--|


The first walk:

e|----------------------------------|
B|----0---0---0---0---0---0---0---0-|
G|----------------------------------|
D|----------------------------------| 
A|--3---2---0----------0h2----------|
E|--------------3---2-------0---0---|


The second walk:

e|-------------------------------------|
B|----0---0---0---0---0---0---0---0----|
G|-------------------------------------|
D|--4---2---1--------------------------|
A|--------------3---2------------------| 
E|----------------------3---2---0------|


The third walk:

e||-----------------------------------------------------------| 
B||----4-------4-------4-------4------------------------------| 
G||--------4-------4-------4-------4--------------------------| 
D||------4-------4-------4-------4----------------------------|
A||--2-------2-------2-------2--------------------------------|
E||-----------------------------------------------------------|

e||-----------------------------------------------------------|
B||----1-------1-------1-------1------------------------------|
G||--------2-------2-------2-------2--------------------------|
D||------2-------2-------2-------2----------------------------|
A||--0-------0-------0-------0--------------------------------|
E||-----------------------------------------------------------|

e||-----------------------------------------------------------|
B||----0---0---0---0---0---0---0------0---0---0---0---0---0---|
G||-----------------------------------------------------------|
D||-----------------------------------------------------------|
A||------2-------2-------2-------0h2--------2-------2-------2-|
E||--0-------0-------0-------0----------0-------0-------0-----|


End of third walk
e||------------------------------------0----------------------|
B||----4-------4-------4-------4-------1----------------------|
G||--------4-------4-------4-------4---2----------------------|
D||------4-------4-------4-------4-----2----------------------|
A||--2-------2-------2-------2---------0----------------------|
E||------------------------------------0----------------------|


Song progression:

Start

Intro

First walk  x Many times

Second walk  x 2

First walk  x 2

Third walk  x 2

First walk  x Many times

Second walk x 2

First walk  x 2

Third walk  x 3

First walk  x Many times

The end
            
Submit corrections

comments powered by Disqus
↑ Back to top | Madrugada Tabs for Sweet Simone. Lyrics for acoustic guitar and electric guitar. Tablatures and chords are parodies/interpretations of the original songs. You may use it for private study, scholarship, research or language learning purposes only