» » »

Madrugada, Shine Tabs (ver.1)

Artists:  A B C D E F G H I J K L M N O P Q R S T U V W X Y Z # 

Shine Tabs (ver.1)

Madrugada Tabs
 Rating:
4/5 (4 votes)
Shine lessons Tabs too difficult? Try these video lessons and learn fast
1
                
Copyright Lhassa Productions

Solo by RH


Intro :

E


Verse 1:

 F#min                   E                                   F#min                       
             E
 Did I talk, in my sleep,     now,                   Hey did I wake to find you cryin', 
my side

             F#min                A             E                        F#min          
                   E
Well you never said, that it was good, you say,  Just that the way,     love grows, we 
to grow too,


Chorus:

              F#min    B                       F#min         B
   Oh well honey here,      tonight,         I'm here,          tonight

          C#min   B       A                 C#min    B         A          E
  Oh now I'll fall       like a star,     oh in time,    You and I,   will shine


Instrumental:

     F#min                     E                            F#min                        E


Verse 2:

                 F#min                E                                  F#min           
                  E
   Oh now hold, your hand, in running water,               And I'll wipe, the black, out 
the blond,

               F#min           A              E                              F#min       
     A          E
 Well now your hand      falls down,     on you,            And your beauty      is as 
as tears


Chorus:

              F#min    B                       F#min         B
   Oh well honey here,      tonight,         I'm here,          tonight

           C#min   B       A                 C#min    B         A          E
   Oh now I'll fall       like a star,     oh in time,    You and I,   will shine


Guitar Solo:

   E

e||----------------------------------------------------------------|
B||----------------------------------------------------------------|
G||------------------------------------------------------9---------|
D||------9-9h11-9---------9-9h11-9----9h11-9-----------------------|
A||-9h11-------------9h11--------------------9h11-9----------------|
E||---------------------------------------------------0------------|

e||----------------------------------------------------------------|
B||----------------------------------------------------------------|
G||------9-11--9--11b---b11rp9--9h11-9-------9---------------------|
D||-9h11--------------------------------9h11----9h11-9h11-9--------|
A||----------------------------------------------------------------|
E||----------------------------------------------------------------|

e||----------------------------------------------------------------|
B||-------12----12-------------------------------------------------|
G||-11/13----13----------------------------------------------------|
D||----------------------------------------------------------------|
A||----------------------------------------------------------------|
E||----------------------------------------------------------------|

Chorus:

            F#min    B                        F#min         B
   Oh well honey here,      tonight,         I'm here,          tonight

          C#min   B       A                 C#min    B         A          E
  Oh now I'll fall       like a star,     oh in time,    You and I,   will shine
            
Submit corrections

comments powered by Disqus
↑ Back to top | Madrugada Tabs for Shine. Lyrics for acoustic guitar and electric guitar. 1 Tablatures and chords are parodies/interpretations of the original songs. You may use it for private study, scholarship, research or language learning purposes only