» » »

On Your Side Tabs (ver.1)

Artists:  A B C D E F G H I J K L M N O P Q R S T U V W X Y Z # 

On Your Side Tabs (ver.1)

Madrugada
Rating:
0/5 (0 votes)

Hard to play? Try these video lessons and learn fast.
                
Intro & main riff:

e|-----------------------------------------------------------------------------
B|---------------------------3-----5-----3-------------------3-----5----6--5---
G|---------2-----4-----5-----------------------5--4-------2-----2--------------
D|------2-----2-----2-----2-----2-----2-----2----------3-----------------------
A|---0-------------------------------------------------------------------------
E|-----------------------------------------------------------------------------

e|------------------------------
B|------------------------------
G|---------2-----4----5--4------  x4
D|------3-----3-----------------
A|---2--------------------------
E|------------------------------

Bridge:
      A         G         F         E
e|-----------------------------------------|
B|-----------------------------------------|
G|----6--6------4--4------2--2------1--1---|
D|----7--7------5--5------3--3------2--2---|
A|----7--7------5--5------3--3------2--2---|
E|----5--5------3--3------1--1------0--0---|

There are some fingerpicking here, but just strumming the chords sounds good too.

End this part with:
      F 
e|-----------------------------------------|
B|-----------------------------------------|
G|----2--2---------------------------------|
D|----3--3---------------------------------|
A|----3--3----etc--------------------------|
E|----1--1---------------------------------|

      F 
e|-----------------------------------------|
B|-----------------------------------------|
G|----1--1---------------------------------|
D|----2--2---------------------------------|
A|----2--2----etc--------------------------|
E|----0--0---------------------------------|

The back to the top. 

Then there's the solo which is some Am doodling. And then the whole thing goes again.

Interlude thingy:

e|---------3p1p0-----0----------|
B|----------------3-----1--0----|
G|------------------------------|
D|------2-----------------------|  X2
A|---0--------------------------|
E|------------------------------|


e|------------------------------|
B|---------3p1p0--1--0----------|
G|------2---------------2-------|
D|---3---------------------3----|
A|------------------------------|
E|------------------------------|


e|------------------------------|
B|------------------------------|
G|---------5p4p0--2-----4-------|
D|------3------------3-----5----|
A|---2--------------------------|
E|------------------------------|

Not sure about the last part, but I think the rest is ok. 

End on Am..

Enjoy!
            
Hard to play? Try these video lessons and learn fast. | Correct




comments powered by Disqus
↑ Back to top | Tablatures and chords are parodies/interpretations of the original songs. You may use it for private study, scholarship, research or language learning purposes only