» » »

Madrugada, Nightly Disease Bass tabs (ver.1)

Artists:  A B C D E F G H I J K L M N O P Q R S T U V W X Y Z # 

Nightly Disease Bass tabs (ver.1)

Madrugada Tabs
 Rating:
4/5 (4 votes)
Nightly Disease lessons Tabs too difficult? Try these video lessons and learn fast
                (PartIi)
Tuning: EADG

Part A 0.00 - 0.42

G|------------------------------------|
D|-------------------5422-22--5452-22-|
A|-7--7--757575757575-----------------|
E|------------------------------------|


Part B 0.42 - 1.02

2x
G|----------------------------------|
D|----------------------------------|
A|-3-3--333-333-3332-2--22----------|
E|------------------------0-000-000-|

1x
G|----------------------------------|
D|----------------------------------|
A|-3-3--333-333-3332-2--222-222-222-|
E|----------------------------------|


Part C 1.02 - 1.16

G|---------------------|
D|-------------10-1010-|
A|-7-7---7-7107--------|
E|---------------------|


Part A 1.16 - 1.58

Part B 1x

Part C 3x


Part D 1x

G|----------------|
D|----------------|
A|-7-7---7--7-7-7-|
E|----------------|


Part A 2x


Part E 1x (2.47)

G|------------------------------------------|
D|------------------------------------------|
A|-3-3--333-333-3332-2--22/14-141414-141414-|
E|------------------------------------------|


Part A rest of the song

the last time you play: (3.15)
G|------------------------------------|
D|-------------------5422-22--5452h---|
A|-7--7--757575757575-----------------|
E|------------------------------------|


that´s it. please rate it
            
Submit corrections

comments powered by Disqus
↑ Back to top | Madrugada Bass for Nightly Disease. Lyrics for acoustic guitar and electric guitar. Tablatures and chords are parodies/interpretations of the original songs. You may use it for private study, scholarship, research or language learning purposes only