» » »

Legends And Bones Tabs (ver.1)

Artists:  A B C D E F G H I J K L M N O P Q R S T U V W X Y Z # 

Legends And Bones Tabs (ver.1)

Madrugada
Rating:
0/5 (0 votes)

Hard to play? Try these video lessons and learn fast.
                
Standard tuning (EADGBE)


Intro and verse:

e||-----------------------------------------------------|
B||-----------------------------------------------------|
G||-----------------2-2-2--4-4-4------------------------| x 5
D||-2-2-2-2-2-2-2-2-2-2-2--4-4-4------------------------|
A||-2-2-2-2-2-2-2-2-0-0-0--2-2-2------------------------|
E||-0-0-0-0-0-0-0-0-------------------------------------|


Last part of Verse og Chorus:

e||---------------------------------------------------------|
B||---------------------------------------------------------|
G||-----------------------------9-9-9-9-9-9-9-9-9-9-9-9-9-9-|
D||-2-2-2-2-2-2-2-2-2-2-2-2-2-2-9-9-9-9-9-9-9-9-9-9-9-9-9-9-|
A||-2-2-2-2-2-2-2-2-2-2-2-2-2-2-7-7-7-7-7-7-7-7-7-7-7-7-7-7-|
E||-0-0-0-0-0-0-0-0-0-0-0-0-0-0-----------------------------|


e||---------------------------------------------------------|
B||---------------------------------------------------------| 
G||-2-2-2-2-2-2-2-2-2-2-2-2-2-2-4-4-4-4-4-4-4-4-4-4-4-4-4-4-|
D||-2-2-2-2-2-2-2-2-2-2-2-2-2-2-4-4-4-4-4-4-4-4-4-4-4-4-4-4-|
A||-0-0-0-0-0-0-0-0-0-0-0-0-0-0-2-2-2-2-2-2-2-2-2-2-2-2-2-2-|
E||---------------------------------------------------------|

e||---------------------------------------------------------|
B||---------------------------------------------------------|
G||-----------------------------9-9-9-9-9-9-9-9-9-9-9-9-9-9-|
D||-2-2-2-2-2-2-2-2-2-2-2-2-2-2-9-9-9-9-9-9-9-9-9-9-9-9-9-9-|
A||-2-2-2-2-2-2-2-2-2-2-2-2-2-2-7-7-7-7-7-7-7-7-7-7-7-7-7-7-|
E||-0-0-0-0-0-0-0-0-0-0-0-0-0-0-----------------------------|


e||--------------------------------|
B||--------------------------------| 
G||-2-2-2-2-2-2-2-2-2-2-2-2-2-2-4--|
D||-2-2-2-2-2-2-2-2-2-2-2-2-2-2-4--|
A||-0-0-0-0-0-0-0-0-0-0-0-0-0-0-2--|
E||--------------------------------|

Solo 1:

e||-----------------------------------------------------------------------|
B||-------------------------------------12-------12-------12--------------|
G||------------------------------9/11b------11b------b11-------11/13---11-|
D||------9-9/11--9------9---9h11------------------------------------------|
A||-9h11-----------9h11---------------------------------------------------|
E||-----------------------------------------------------------------------|

e||-----------------------------------------------------------12--14/b15--|
B||----------------------------------------------------12h14--------------|
G||-9-------9-------------------------------------------------------------|
D||----9h11----11--9h11-9-------9-9--9/11-9--9/11--9----------------------|
A||------------------------9h11-------------------------------------------|
E||-----------------------------------------------------------------------|

e||-14/b15--14/b1514--12--14--12-----------------------------------------|
B||-----------------------------------------------------12----------------|
G||---------------------------------------9----11b/b13-----b13b11----9---|
D||----------------------------------9h11---11----------------------------|
A||-----------------------------------------------------------------------|
E||-----------------------------------------------------------------------|

e||-----------------------------------------------------------------------|
B||-----------------------------------------------------------------------|
G||-11--9-9/11--9---------------------------------------------------------|
D||-----------------------------------------------------------------------|
A||-----------------------------------------------------------------------|
E||-----------------------------------------------------------------------|

Verse:

Last part of Verse og chorus:

Solo 2:

e||-----------------------------------------------------------------------|
B||---------------------------------12------------------------------------|
G||------------------------11b/b13------b13/11br--9--11--9-----9-9h11--9--|
D||------9-9/11-9------9--------------------------------------------------|
A||-9h11----------9h11----------------------------------------------------|
E||-----------------------------------------------------------------------|

e||-------------------------------12------------12------------------------|
B||---------------------------12-----12h14-12------12h14-12---12-12h14-12-|
G||-------9--------9-11b/b13----------------------------------------------|
D||-9h11-----9h11---------------------------------------------------------|
A||-----------------------------------------------------------------------|
E||-----------------------------------------------------------------------|

e||-----------------------------------------------------------------------|
B||-----------------------------------------------------------------------|
G||-b13r/11--9-------9--11b/b13---b13--b11/b13b11---9--------------------|
D||-------------9h11-------------------------------------------9h11-9-----|
A||-------------------------------------------------------9h11------------|
E||-----------------------------------------------------------------------|

e||------------------------------------------------------------|
B||-----------------12-----------------------------------------|
G||---------11b/b13-----b13r/11--9-----------------------------|
D||------9-----------------------------------------------------|
A||-9h11-------------------------------------------------------|
E||------------------------------------------------------------|
            
Hard to play? Try these video lessons and learn fast. | Correct




comments powered by Disqus
↑ Back to top | Tablatures and chords are parodies/interpretations of the original songs. You may use it for private study, scholarship, research or language learning purposes only