» » »

Give It 2 Me Tabs (ver.1)

Artists:  A B C D E F G H I J K L M N O P Q R S T U V W X Y Z # 

Give It 2 Me Tabs (ver.1)

Madonna
Rating:
0/5 (0 votes)

Hard to play? Try these video lessons and learn fast.
                -------------------------------------------------------------------------------
                      "Give It 2 Me" - MADONNA
-------------------------------------------------------------------------------

Tuning: Half step lower (Eb Ab Ed Gb Bb eb)

[Arrenged to guitar]

INTRO/BASS LINE [which is played all along the song]:
Gb|--------------------------|----------------------------------------------------|
Db|--------------------------|----------------------------------------------------|
Ab|--------------------------|---------------------------5-5-3-2------------------|
Eb|-0-3p0--5-x-5-x-5-x-5-5-5-|-0h3p0h3p0-5-5-5-x-5-5-5-5---------5-5-5-5-x-5-5-5--|
[play this all along the song]

"What are you waiting for?
Nobody's gonna show you how
Why work for someone else
To do what you can do right now?

Got no boundaries and no limits
If there's excitement, put me in it
If it's against the law, arrest me
If you can handle it, undress me"


PRE-CHORUS:

Synth.:
eb|-----------|
Bb|-----------|
Gb|-9-9-9-9-9-|
Db|-----------|
Ab|-7-7-7-7-7-|
Eb|-----------| [repeats]
"Don't stop me now, don't need to catch my breath
I can go on and on and on
When the lights go down and there's no one left
I can go on and on and on"

CHORUS:
"Give it to me, yeah
No one's gonna show me how
Give it to me, yeah
No one's gonna stop me now"

Main Riff:
eb|-10-7-8-----|
Bb|--------10--|
Gb|------------|
Db|------------|
Ab|------------|
Eb|------------|
[repeats]

Chorus ends with:
eb|191919191919191919
Bb|------------------|
Gb|------------------|
Db|------------------|
Ab|------------------|
Eb|------------------|

VERSES [with the same bass line]:
"They say that a good thing never lasts
And then it has to fall
Those are the the people that did not
Amount to much at all"

BRIDGE:
eb|-5*-5*-5*-5*--|
Bb|--------------|
Gb|--------------|
Db|--------------|
Ab|--------------|
Eb|--------------|
[repeats]

"Get stupid, get stupid, get stupid, don't stop it (what?)
Get stupid, get stupid, get stupid, don't stop it (what?)
Get stupid, get stupid, get stupid, don't stop it (what?)
Get stupid, get stupid, get stupid, don't stop it..."

You can here some bells that do this once:
eb|-4...-5...-
Bb|-----------|
Gb|-----------|
Db|-----------|
Ab|-----------|
Eb|-----------|

"Give me the bassline and I'll shake it
Give me a record and I'll break it
There's no beginning and no ending
Give me a chance to go and I'll take it"

VERSES:
"Don't stop me now, don't need to catch my breath
I can go on and on and on
When the lights go down and there's no one left
I can go on and on and on"

CHORUS:
[Same riffs as the chorus before]
"Give it to me, yeah
No one's gonna show me how
Give it to me, yeah
No one's gonna stop me now"

VERSES:
[Madonna sings with talk-box effect]
"You're only here to win
Get what they say?
You're only here to win
Get what they do?
They'd do it too
If they were you
You done it all before
It ain't nothing new"

CHORUS:
"Give it to me, yeah
No one's gonna show me how
Give it to me, yeah
No one's gonna stop me now"

| h  hammer-on
| p  pull-off
| *  harmonic
| x  Mute note
===============================================================================
            
Hard to play? Try these video lessons and learn fast. | Correct




comments powered by Disqus
↑ Back to top | Tablatures and chords are parodies/interpretations of the original songs. You may use it for private study, scholarship, research or language learning purposes only