» » »

Madonna, Frozen Tabs (ver.1)

Artists:  A B C D E F G H I J K L M N O P Q R S T U V W X Y Z # 

Frozen Tabs (ver.1)

Madonna Tabs
 Rating:
4/5 (4 votes)
Frozen lessons Tabs too difficult? Try these video lessons and learn fast
1
                intro
e|---------------------------------------------------------------------------|
B|6----6--8--9----8--6--8----4---6--------9-----8----6----6--8--9--11--14--13|
G|---------------------------------------------------------------------------|
D|---------------------------------------------------------------------------|
A|---------------------------------------------------------------------------|
E|---------------------------------------------------------------------------|

e|---------------------------------------------------------------------------|
B|11--9--8----6--------------------------------------------------------------|
G|---------------------------------------------------------------------------|
D|---------------------------------------------------------------------------|
A|---------------------------------------------------------------------------|
E|---------------------------------------------------------------------------|

verse
guitar 1
e|---------------------------------------------------------------------------|
B|-----------------------6---------------------------------------------------|
G|1----------1-----------6---------------------------------------------------|
D|3----------3-----------6-----------5---------------------------------------|
A|3----------3-----------4-----------6---------------------------------------|
E|1----------1-----------4-----------6---------------------------------------|
            
Submit corrections

comments powered by Disqus
↑ Back to top | Madonna Tabs for Frozen. Lyrics for acoustic guitar and electric guitar. 1 Tablatures and chords are parodies/interpretations of the original songs. You may use it for private study, scholarship, research or language learning purposes only