» » »

Madness, Return Of The Los Palmas Bass tabs (ver.1)

Artists:  A B C D E F G H I J K L M N O P Q R S T U V W X Y Z # 

Return Of The Los Palmas Bass tabs (ver.1)

Madness Tabs
Rating:
0/5 (0 votes)
Return Of The Los Palmas lessons Tabs too difficult? Try these video lessons and learn fast
                "(7)
BAND NAME: MADNESS

NOTE: 1st BAR, I ONLY TYPE THIS IN ONCE, BUT YOU PLAY IT MORE THAN ONCE,
THIS HAPPENS THROUGHOUT THE SONG, SAVES ME HAVING TO REPEAT IT!

--------------|--------------|--------------|--------------|---------------|
--------------|--------------|--------------|--------------|---------------|
--------3-5-3-|--------5-7-5-|-3---3--3-1---|--------3-5-3-|--------5-7-5--|
-1---1--------|-3---3--------|------------3-|-1---1--------|-3---3---------|

--------------|--------------|--------------|--------------|---------------|
--------------|--------------|--------0-2-0-|--------------|-----------2---|
-3---3--3-1---|--------3-5-3-|---1----------|-3---3---3--1-|-0----3--------|
------------3-|-1---1--------|-3---3--------|--------------|---------------|

----------2---|
-0----3-------|
--------------|
--------------|

                             *
--------------|--------------|--------------|--------------|---------------|
--------------|--------------|--------------|--------------|---------------|
-----3--3--3--|-----3--3--3--|--------------|--------3-5-3-|--------5-7-5--|
-3------------|-3------------|-1---1-1-1-1--|-1---1--------|-3---3---------|
                             *
--------------|--------------|--------------|--------------|---------------|
--------------|--------------|--------0-2-0-|--------------|-----------2---|
-3---3--3-1---|--------3-5-3-|---1----------|-3---3---3--1-|-0----3--------|
------------3-|-1---1--------|-3---3--------|--------------|---------------|

--------------|--------------|--------------|--------------|---------------|
-0-----3------|--------------|--------------|-3-3-3--------|---------------|
--------------|---5-3---3-3--|---5-3--3-5-3-|--------3-5-3-|--------3-5-3--|
--------------|-3------------|-3------------|--------------|-1---1---------|

PLAY NEXT SECTION TWICE:
--------------|--------5---5-|--------------|--------------|---------------|
--------------|----------8---|--------3-1-3-|------------5-|---------------|
----------8---|-6---6--------|--------------|----------4---|----------5----|
-6---6--9---9-|--------------|-4---4--------|-3---3--6-----|-6---7--7---7--|

--------------|--------------|------------------|
--------------|--------------|------------------|
-3---3-3---3--|-3-3--3-3-2---|-3-3-1-1----------|
--------------|--------------|----------5-5-3-3-|
                1st ending           2nd ending

FINALE:
--------------|-------------|
--------------|-------------|
--------3-5-3-|-------------|
-1---1--------|-1---1-1-1-1-|

PLAY FROM THE BEGINNING UPTO THE SECTION THAT REPEATS WITH 2 DIFFERENT
ENDINGS, THEN GO BACK TO THE BEGINNING AND PLAY UPTO THE TWO STARS, THEN
FINALE (1st bar ten times)
"            
Submit corrections

comments powered by Disqus
↑ Back to top | Madness Bass for Return Of The Los Palmas. Lyrics for acoustic guitar and electric guitar. Tablatures and chords are parodies/interpretations of the original songs. You may use it for private study, scholarship, research or language learning purposes only