» » »

Madina Lake, Welcome To Oblivion Bass tabs (ver.1)

Artists:  A B C D E F G H I J K L M N O P Q R S T U V W X Y Z # 

Welcome To Oblivion Bass tabs (ver.1)

Madina Lake Tabs
 Rating:
4/5 (4 votes)
Welcome To Oblivion lessons Tabs too difficult? Try these video lessons and learn fast
                





Tuning: Drop C.




Verse [00:19]

F|-----------------------------------------------------------|
C|-----------------------------------------------------------|
G|--1111-1--111---------------1-1111-1--111------------------|
C|--------------0-0000-0--000---------------0-0000-0----10\--|



Chorus [00:32]

F|------------------------------------------------------------|
C|------------------------------------------------------------|
G|--1(x8)--3(x8)--5(x8)--8(x8)----1(x8)--3(x8)--5(x8)--0(x8)--|
C|------------------------------------------------------------|



Verse [00:44]

F|---------------------------------------------------------|
C|---------------------------------------------------------|
G|--1111-1--111---------------1-1111-1--111----------------|
C|--------------0-0000-0--000---------------0-0000-0--000--|

F|------------------------------------------|
C|------------------------------------------|
G|------------------------------------------|
C|--5(x16)--8(x16)--5(x16)--8(x8)--/10(x8)--|



Chorus [01:09]

F|------------------------------------------------------------|
C|------------------------------------------------------------|
G|--1(x8)--3(x8)--5(x8)--8(x8)----1(x8)--3(x8)--5(x8)--8(x8)--|
C|------------------------------------------------------------|

F|------------------------------------------------------------|
C|------------------------------------------------------------|
G|--1(x8)--3(x8)--5(x8)--8(x8)----1(x8)--3(x8)--5(x8)--0(x8)--|
C|------------------------------------------------------------|



Bridge [01:35]

F|----------|
C|----------|
G|----------|
C|--3(x64)--|


[01:48]

F|----------------------------------------------------------------------------|
C|----------------------------------------------------------------------------|
G|--------------------------------5(x8)--3(x8)--------------------------------|
C|--3(x16)--7(x8)--8(x8)--3(x16)----------------3(x16)--7(x8)--8(x8)--10(x32)-|



Chorus [02:26]

F|------------------------------------------------------------|
C|------------------------------------------------------------|
G|--1(x8)--3(x8)--5(x8)--8(x8)----1(x8)--3(x8)--5(x8)--8(x8)--|
C|------------------------------------------------------------|

F|------------------------------------------------------------------------|
C|------------------------------------------------------------------------|
G|--1(x8)--3(x8)--5(x8)--8(x8)----1(x8)--0(x4)--3(x4)--5555-5--555-5--5~--|
C|------------------------------------------------------------------------|





| /  slide up
| \  slide down
| h  hammer-on
| p  pull-off
| ~  vibrato
| +  harmonic
| x  Mute note
            
Submit corrections

comments powered by Disqus
↑ Back to top | Madina Lake Bass for Welcome To Oblivion. Lyrics for acoustic guitar and electric guitar. Tablatures and chords are parodies/interpretations of the original songs. You may use it for private study, scholarship, research or language learning purposes only