» » »

Madina Lake, Pandora Tabs (ver.1)

Artists:  A B C D E F G H I J K L M N O P Q R S T U V W X Y Z # 

Pandora Tabs (ver.1)

Madina Lake Tabs
 Rating:
4/5 (4 votes)
Pandora lessons Tabs too difficult? Try these video lessons and learn fast
                ----------------------------------------------------------------------------
                                                                  MADINA LAKE - Pandora
----------------------------------------------------------------------------


Tuning: Drop D (DADGBe)

I've tried to add the rhythm into the tab, but it may not be correct because of the 
sort-of rhythm in the verse of the song, which makes it hard to tab.


Intro (synth): The way you dance, it turns me on,
                        but you know that I'm spoken for.
                        The way the sweat drips off your chest,
                        you know that I'm wanting more.


Verse:             The lies, the heat, the sex, this sweat...

|-----------------------------------------------------------------------|
|-8-8-8-8-8-8-8-8---3---3-3---5---2-2---2-2---2---2-2---2-2---2-2-------|
|-9-9-9-9-9-9-9-9---4---4-4---6---3-3---3-3---3---3-3---3-3---3-3-------|
|-9-9-9-9-9-9-9-9---5---5-5---7---4-4---4-4---4---4-4---4-4---4-4-------|
|---------------------------------4-4---4-4---4---4-4---4-4---4-4-(x4)--|
|-----------------------------------------------------------------------|


                        ...Pandora.

Chorus:          I don't know how you charmed your name into my heart...

|-----------------------------------------------------------------------|
|-----------------------------------------------------------------------|
|-----------------------------------------------------------------------|
|-7-7-7-7---9-9-9-9---11-11-11-11---6-6-6-6--6-5--6---------------------|
|-7-7-7-7---9-9-9-9---11-11-11-11---6-6-6-6--6-5--6---------------------|
|-7-7-7-7---9-9-9-9---11-11-11-11---6-6-6-6--6-5--6--(x4)---------------|


Verse:            The girl I love sits at home, and I know that she's lonely...

|-----------------------------------------------------------------------|
|-8-8-8-8-8-8-8-8---3---3-3---5---2-2---2-2---2---2-2---2-2---2-2-------|
|-9-9-9-9-9-9-9-9---4---4-4---6---3-3---3-3---3---3-3---3-3---3-3-------|
|-9-9-9-9-9-9-9-9---5---5-5---7---4-4---4-4---4---4-4---4-4---4-4-------|
|---------------------------------4-4---4-4---4---4-4---4-4---4-4-(x5)--|
|-----------------------------------------------------------------------|

                       ...Pandora.

Chorus:         I don't know how you charmed your way into my heart...

|-----------------------------------------------------------------------|
|-----------------------------------------------------------------------|
|-----------------------------------------------------------------------|
|-7-7-7-7---9-9-9-9---11-11-11-11---6-6-6-6--6-5--6---------------------|
|-7-7-7-7---9-9-9-9---11-11-11-11---6-6-6-6--6-5--6---------------------|
|-7-7-7-7---9-9-9-9---11-11-11-11---6-6-6-6--6-5--6--(x4)---------------|

                       ....Pandora.


Bridge (synth):

                       And by the time I come home, she's already sleeping...

                       ...the love, the hate, the guilt, my fate, against this temptress.


Guitar part to bridge:

|-0-0-0-0-0-0-0-0-0h7-7-7-7-7-7-6-7-6-6-6-6-6-6-6-6-2-2-2-2-3-3-3-3-(x2)|
|-----------------------------------------------------------------------|
|-----------------------------------------------------------------------|
|-----------------------------------------------------------------------|
|-----------------------------------------------------------------------|
|-----------------------------------------------------------------------|
(add a pick scr*pe at the end of this little bridge thing if you so desire; the studio 
does).

                      ....Pandora


Chorus:        I don't know how you charmed your way into my heart...

|-----------------------------------------------------------------------|
|-----------------------------------------------------------------------|
|-----------------------------------------------------------------------|
|-7-7-7-7---9-9-9-9---11-11-11-11---6-6-6-6--6-5--6---------------------|
|-7-7-7-7---9-9-9-9---11-11-11-11---6-6-6-6--6-5--6---------------------|
|-7-7-7-7---9-9-9-9---11-11-11-11---6-6-6-6--6-5--6--(x5)---------------|

                      ....Pandora.

END OF SONG!
Enjoy.
            
Submit corrections

comments powered by Disqus
↑ Back to top | Madina Lake Tabs for Pandora. Lyrics for acoustic guitar and electric guitar. Tablatures and chords are parodies/interpretations of the original songs. You may use it for private study, scholarship, research or language learning purposes only