» » »

Madina Lake, Legends Tabs (ver.1)

Artists:  A B C D E F G H I J K L M N O P Q R S T U V W X Y Z # 

Legends Tabs (ver.1)

Madina Lake Tabs
 Rating:
4.3/5 (6 votes)
Legends lessons Tabs too difficult? Try these video lessons and learn fast
                VERY EASY TO PLAY!!
like my three year old cousin could play it!!
and it's fun =].

DROP D: DADGBe

KEY:
, = staccato note
. = palm mute
/ = slide up
\ = slide down


INTRO---
|---------------------------------|
|---------------------------------|
|---------------------------------|
|---------------------------------|
|---------------------------------|
|-5~---5--5------5-5---5--5--(6x)-|
       ,  ,        ,   ,  ,

|---------------------------------|
|---------------------------------|
|---------------------------------|
|---------------------------------|
|---------------------------------|
|-1~---1--1------3-3---3--3-------|
       ,  ,        ,   ,  ,

|--------------------------------------|
|--------------------------------------|
|-----------------------------x-x-x-x--|
|-----------------------------x-x-x-x--|
|-----------------------------x-x-x-x--|
|-5~---5--5------5-5---5--5---x-x-x-x--|
       ,  ,        ,   ,  ,


CHORUS---
|-----------------------------------------------------------------------|
|-----------------------------------------------------------------------|
|-----------------------------------------------------------------------| x2
|-5~---5--5--x-x-5-5---5--5---x-x-5~---5--5--x-x-5-5---5--5-//-11-11-11-|
|-5~---5--5--x-x-5-5---5--5---x-x-5~---5--5--x-x-5-5---5--5-//-11-11-11-|
|-5~---5--5--x-x-5-5---5--5---x-x-5~---5--5--x-x-5-5---5--5-//-11-11-11-|
       ,  ,        ,   ,  ,            ,  ,        ,   ,  ,

VERSE 2---
The guitar does something weird, it intervals on the sixth string (the low D) between 
3rd and 5th fret in a complicated pattern.
But when the singer sings, "'Cause our lives...", that is when this starts:

|----------------------------------------|
|----------------------------------------|
|----------------------------------------|
|----------------------------------------|
|----------------------------------------|
|-1~~--3~~--5~~-//-8~~~---1~~--3~~--5~~--|

(drum solo)

REPEAT CHORUS:


BRIDGE 1---
"I open up like a window..."
|-------------------------------------------------------------|
|-------------------------------------------------------------|
|-------------------------------------------------------------|
|-1-1-1-1-1-1-1-1-//-11-11-11-11-11-11-11-11--5~---5--5-------|
|-1-1-1-1-1-1-1-1-//-11-11-11-11-11-11-11-11--5~---5--5-(4x)--|
|-1-1-1-1-1-1-1-1-//-11-11-11-11-11-11-11-11--5~---5--5-------|
                                                   ,  ,

BRIDGE 2---
"Martyrs and kings..."
|----------------------|
|----------------------|
|----------------------|
|----------------8\\---|
|----------------8\\---|
|-5~~--7~~--8~~--8\\---|

BRIDGE 3---
"Let's burn this town..."
|----------------------------|
|----------------------------|
|----------------------------|
|-5-----5~---5-----6~--------|
|-5-----5~---5-----6~--(2x)--|
|-5-----5~---5-----6~--------|
  ,          ,


REPEAT CHORUS


And that's the end.
Comment it =]
            
Submit corrections

comments powered by Disqus
↑ Back to top | Madina Lake Tabs for Legends. Lyrics for acoustic guitar and electric guitar. Tablatures and chords are parodies/interpretations of the original songs. You may use it for private study, scholarship, research or language learning purposes only