» » »

Madina Lake, Legends Bass tabs (ver.1)

Artists:  A B C D E F G H I J K L M N O P Q R S T U V W X Y Z # 

Legends Bass tabs (ver.1)

Madina Lake Tabs
 Rating:
4.4/5 (7 votes)
Legends lessons Tabs too difficult? Try these video lessons and learn fast
                -------------------------------------------------------------------------------
-------------------------------------------------------------------------------






Tuning: Drop C.





Verse [00:00]

F|------------------------------------------------|
C|------------------------------------------------|
G|--0~--0-0----0-0~--0-0----0~--0-0----0-0~--0-0--|     [x3]
C|------------------------------------------------|

F|--------------------------------------------|
C|--------------------------------------------|
G|------------------------0~--0-0----0~--0-0--|
C|--3~--3-3----5~--5-5------------------------|



Chorus [00:34]

F|--------------------------------------------------|
C|--------------------------------------------------|
G|--0~--0-0----0-0~--0-0----0~--0-0----0-0~--0-0----|     [x2]
C|-----------------------------------------------2--|



Verse [00:50]

F|------------------------------------------------|
C|------------------------------------------------|
G|--0~--0-0----0-0~--0-0----0~--0-0----0-0~--0-0--|     [x2]
C|------------------------------------------------|

F|-------------------------------------------|
C|-------------------------------------------|
G|-------------------------------------------|
C|--4~----5~----7~----10~----3~----5~----7~--|



Chorus [01:22]

F|--------------------------------------------------|
C|--------------------------------------------------|
G|--0~--0-0----0-0~--0-0----0~--0-0----0-0~--0-0----|     [x2]
C|-----------------------------------------------2--|



Bridge [01:37]

F|-------------------------------------------|
C|-------------------------------------------|
G|----------------0~--0-0----0-0~--0-0--12\--|
C|--3(x8)--1(x8)-----------------------------|

F|--------------------------------|
C|--------------------------------|
G|----------------0~--0-0----12\--|
C|--3(x8)--1(x8)------------------|

F|-------------------------------------------|
C|-------------------------------------------|
G|----------------0~--0-0----0-0~--0-0--12\--|
C|--3(x8)--1(x8)-----------------------------|

F|--------------------------------|
C|--------------------------------|
G|----------------0~--0-0----12\--|
C|--3(x8)--1(x8)------------------|



Chorus [02:17]

F|------------------------------|
C|------------------------------|
G|------------------------------|     [x2]
C|--7~--7\----7~--7----8-8-8-8--|

F|--------------------------------------------------|
C|--------------------------------------------------|
G|--0~--0-0----0-0~--0-0----0~--0-0----0-0~--0-0----|     
C|-----------------------------------------------2--|

F|-----------------------------------------------------|
C|-----------------------------------------------------|
G|--0~--0-0----0-0~--0-0----0~--0-0----0-0~--0-0-------|     
C|-----------------------------------------------0-2~--|





| /  slide up
| \  slide down
| h  hammer-on
| p  pull-off
| ~  vibrato
| +  harmonic
| x  Mute note
===============================================================================
            
Submit corrections

comments powered by Disqus
↑ Back to top | Madina Lake Bass for Legends. Lyrics for acoustic guitar and electric guitar. Tablatures and chords are parodies/interpretations of the original songs. You may use it for private study, scholarship, research or language learning purposes only