» » »

Madina Lake, In Another Life Tabs (ver.1)

Artists:  A B C D E F G H I J K L M N O P Q R S T U V W X Y Z # 

In Another Life Tabs (ver.1)

Madina Lake Tabs
 Rating:
4/5 (5 votes)
In Another Life lessons Tabs too difficult? Try these video lessons and learn fast
                tuning: drop c

intro:
D|---------------------------------|
A|-7-7-7-7-7-7-7-7-7-7-7-7-7-7-7-7-|
F|---------------------------------|x2
C|---------------------------------|
G|---------------------------------|
C|---------------------------------|

VERSE 1
D|------------------------------------------|
A|------------------------------------------|
F|------------------------------------------|x4
C|-22222222-99999999-55555555-xx-xx-xxxxxxx-|
G|-22222222-99999999-55555555-xx-xx-xxxxxxx-|
C|-22222222-99999999-55555555-xx-xx-xxxxxxx-|

chorus:
D|------------------------------------------|
A|-77777777-10101010-9999-77777777----------|
F|--------------------------------9999-8888-|
C|------------------------------------------|
G|------------------------------------------|
C|------------------------------------------|

D|-------------------------------------------|
A|-7777777-10101010-9999-77777777----------7~|
F|--------------------------------9999-8888--|
C|-------------------------------------------|
G|-------------------------------------------|
C|-------------------------------------------|

VERSE 2
D|------------------------------------------|
A|------------------------------------------|
F|------------------------------------------|
C|-22222222-99999999-55555555-xx-xx-xxxxxxx-|x2
G|-22222222-99999999-55555555-xx-xx-xxxxxxx-|
C|-22222222-99999999-55555555-xx-xx-xxxxxxx-|

D|----------------------------------------|
A|----------------------------------------|
F|----------------------------------------|
C|-22222222-99999999-55555555-xx-xx-5\\\--|
G|-22222222-99999999-55555555-xx-xx-5\\\--|
C|-22222222-99999999-55555555-xx-xx-5\\\--|

chorus x2

bridge:
D|----------------------------------------------|
A|----------------------------------------------|
F|----------------------------------------------|
C|--2--2--222222--2--2--222222--222222--222222--|
G|--2--2--222222--2--2--222222--222222--222222--|
C|--2--2--222222--2--2--222222--222222--222222--|

D|------------------------------------16-16-16-16-16-18-18-18-18-18-|
A|-18-18-18-18-18-18------------------------------------------------|
F|------------------20-20-20-20-20-20-------------------------------|
C|------------------------------------------------------------------|
G|------------------------------------------------------------------|
C|------------------------------------------------------------------|

D|-------------------------------------16-16-16-16-16-16-18-18-20-20-21-21-|
A|-18-18-18-18-18-18-------------------------------------------------------|
F|-------------------20-20-20-20-20-20-------------------------------------|
C|-------------------------------------------------------------------------|
G|-------------------------------------------------------------------------|
C|-------------------------------------------------------------------------|

CHORUS X2

end on either
D|------|       D|------|
A|-7~~--|       A|------|
F|------|       F|------|
C|------|  OR   C|------| 
G|------|       G|------|
C|------|       C|-2~~--|
            
Submit corrections

comments powered by Disqus
↑ Back to top | Madina Lake Tabs for In Another Life. Lyrics for acoustic guitar and electric guitar. Tablatures and chords are parodies/interpretations of the original songs. You may use it for private study, scholarship, research or language learning purposes only